Oops, an error
Loading. Please wait.

Sellout Tab

39 views 1 this week
no commentswrite comment
1 2 3 4 5
please rate
add to favorites
launch autoscroll
font size
0
reset
how to read this tab
guitar tuner
Autoscroll
slow
fast
+/-
esc
set tempo
stop
Help us to improve Ultimate-Guitar.com Take our survey!
×
Author
SMASHING STARS 
"SELLOUT" (This is my local band and a couple of my friends wanted to know how to play so here it if for a free demo write to mcmulberry@yahoo.com
*********************************************************
       
e---0------9------opening--------------------
B---0------9-------------------------------------
G--0-------9-------------------------------------------
D---0-------9------------------------------------------
A--------------------------------------------------
E----------------------------------------------------      

(CHOURS) REPEAT A LOT
e--9-9-9/--7^--9-9-9-9---------------------------------------
B--9-9-9/--7^--9-9-9-9------------------------------------------
G-9-9-9/--7^--9-9-9-9------------------------------------------
D----------------------------------------------------
A--------------------------------------------------
E----------------------------------------------------

REPEAT 5 TIMES                            END ON ON Em
e---8-8-8--4^-4-4-4--------------------x---------------------------
B---8-8-8--4^-4-4-4--------------------x---------------------------
G-- 8-8-8--4^-4-4-4--------------------x---------------
D---8-8-8--4^-4-4-4--------------------2----------------------
A----------------------------------------2----------
E---------------------------------------- 0-----------

REPEAT THE CHOURS THEN STRUM THESE NOTES 
 (REMEMBER TO STRUM DOWN)
                             PM[--------------]   END ON THIS
e--9-----5-------0------7-----0---------------9---------
B--9-----5-------0------7-----0----------------9------------
G-9------5-------0------7-----0----------------9-----------
D--x-------x------0------7----0----------------9-----------
A--x-------x-----------------------------------------
E---x-------x------------------------------------------

 WHEN RUSTY SAYS NICE SELLOUT STEVON GO END ON Dm AND SLIDE TO 
TO  THE 9TH FRET





any questions email me at mcmulberry@yahoo.com
Suggest correction
What's this?
You can suggest a correction to this tab. Community and Mods will review your correction and vote to approve or reject it.
comments
We did not receive enough feedback on this tab! Please rate:
print report bad tab
1 2 3 4 5
guest
You may want to rate the tab now too:
select rating
Please do not post tabs as comments. Select "correction" instead!