Oops, an error
Loading. Please wait.

Afterlife tab

version 1
version 1

Whole song

Interactive

1,623 views 1 this week
1 commentread comment
1 2 3 4 5
x 4
add to favorites
×
Save as Personal and add changes to this tab that will be seen only by you. Learn more ›
×
You can save this tab as Personal to edit and correct it or add notes. All changes will be seen only by you. Learn more »
launch autoscroll
font size
0
reset
how to read this tab
guitar tuner
edit
Autoscroll
slow
fast
+/-
esc
set tempo
stop
-----------------------------------------------------------------------------
                             Afterlife - Smile Empty Soul
-----------------------------------------------------------------------------
Tabbed by: wallinman78
Email: wallinman789@yahoo.com

Tuning:Drop C#
Intro
e|---------------------------------------------------------------------------|
B|---------------------------------------------------------------------------|
G|-7-/--10--9------------------------7-/--14---9-----------------------------|
D|-7-/--x---8----0---3-p-0--3-/--5---7-/---x---8---0--3-p-0--3-/--5----------|
A|-5-/--8---7----0---3-p-0--3-/--5---5-/--12---7---0--3-p-0--3-/--5----------|
E|-0----0---8----0---3-p-0--3-/--5---0-----0---8---0--3-p-0--3-/--5----------|
Verse
e|--------------------0-------0----------------------------------------------|
B|--------------------3-------3----------------------------------------------|
G|-7---9----7---9-----2-------2----------------------------------------------|
D|-7---8----7---8-----0-------0----------------------------------------------|
A|--------------------0-------0----------------------------------------------|
E|--------------------0-------0----------------------------------------------|
Pre Chorus
e|---------------------------------------------------------------------------|
B|---------------------------------------------------------------------------|
G|--------------------------------------9------------------------------------|
D|--------------------------------------8------------------------------------|
A|--------------------------------------7------------------------------------|
E|-12p0--0--14--15--0--12p0--14p0--15---8------------------------------------|
Chorus
e|---------------------------------------------------------------------------|
B|---------------------------------------------------------------------------|
G|-5---5-----------------------5---5-------3---5-----------------------------|
D|-3---5---0----12p0--0--12p---3---5---0---3---5-----------------------------|
A|-3---3---0----12p0--0--12p---3---3---0---1---3-----------------------------|
E|-3-------0----12p0--0--12p---3-------0-------------------------------------|
Breakdown
e|---------------------------------------------------------------------------|
B|---------------------------------------------------------------------------|
G|---------------------------------------------------------------------------|
D|---------7-7-7-7--8-8-8-8--10-10-10-10---------7-7-7-7--8-8-8-8--10-10-10--|
A|-5-5-5-5-------------------------------8-8-8-8-----------------------------|
E|---------------------------------------------------------------------------|

e|---------------------------------------------------------------------------|
B|---------------------------------------------------------------------------|
G|-------------------------------------------------------------3-3-3-3-------|
D|-10---------7-7-7-7--8-8-8-8--5-5-5-5---------3-3-3-3----------------------|
A|----3-3-3-3---------------------------0-0-0-0---------1-1-1-1--------------|
E|---------------------------------------------------------------------------|

e|-----------------------------------------------------------------------------|
B|-----------------------------------------------------------------------------|
G|---------5-------------------------------------------------------------------|
D|-0---3---5----7---8--8-------------------------------------------------------|
A|-0---3---3----8---8--8-------------------------------------------------------|
E|-0---3--------7---8--8-------------------------------------------------------|

e|---------------------------------------------------------------------------|
B|---------------------------------------------------------------------------|
G|---------------------------------------------------------------------------|
D|---------------------------------------------------------------------------|
A|---------------------------------------------------------------------------|
E|---------------------------------------------------------------------------|


************************************

| /   slide up
| \   slide down
| h   hammer-on
| p   pull-off
| ~   vibrato
| +   harmonic
| x   Mute note
| b   Bend
| pb  Pre-bend
| br  Bend release
| pbr Pre-bend release
| brb Bend release bend

************************************

            
            
Suggest correction
Creating personal tab
Creating personal tab
You can edit any tab online and save it as your Personal.

You can edit, replace or remove any tab part or add personal notes – all changes will be seen only by you.

Personal tabs can be accessed anytime from any device, even offline.
Learn more »
comments
print report bad tab
1 comment total.
0 reply
PTAWS6 590 Apr 27, 2014 08:44 AM

The second part of the verse is actually this:
|-0-
|-0-
|-7-
|-7-
|-0-
|-0-

and the chorus is:
e|--------------------------------------------------------------------------|
B|--------------------------------------------------------------------------|
G|-----5-------------------------5----------------14------------------------|
D|-3---5---0----5p0--0--4p---3---5---0---10---7---x-------------------------|
A|-3---3---0----5p0--0--4p---3---3---0---10---7---12------------------------|
E|-3-------0----5p0--0--4p---3-------0---10---7-----------------------------|

guest
You may want to rate the tab now too:
select rating
Wanna post a correction for this tab? Suggest correction