Oops, an error
Loading. Please wait.

Bottom Of A Bottle tab

version 2
version 2

Interactive

2,627 views 1 this week
no commentswrite comment
1 2 3 4 5
x 4
add to favorites
×
Save as Personal and add changes to this tab that will be seen only by you. Learn more ›
×
You can save this tab as Personal to edit and correct it or add notes. All changes will be seen only by you. Learn more »
launch autoscroll
font size
0
reset
how to read this tab
guitar tuner
edit
Autoscroll
slow
fast
+/-
esc
set tempo
stop
Gtr I (Db Ab Db Gb Bb Eb) - 'Clean'
Gtr II (Db Ab Db Gb Bb Eb) - 'Acoustic'
Gtr III (Db Ab Db Gb Bb Eb) - 'Distortion'
Gtr IV (Db Ab Db Gb Bb Eb) - 'Distortion 2'


   Intro
    Moderate Rock Q=106
    Emadd2   Emadd2/D
   4/4
    Gtr I
    E. S +E  E +E  E S S E
||-------------------------|
||o------------------------|
||-----0-(0)-------5-5p4---|
||--4--------------------5-|
||o-x----------------------|
||--2--------0-(0)---------|


 1.                           2.
  A7       Cmaj7               A7       Cmaj7
  E. S +E  E +S  E. E S  S     E. S +E  E +S  E. E E
|---------------------------||------------------------||
|----------------0---------o||----------------0-------||
|-------------------0-------||-------------------0----||
|----5-(5)------------5\-4--||----5-(5)------------5\-||
|-0--------3-(3)-----------o||-0--------3-(3)---------||
|---------------------------||------------------------||


 Interlude
  E5       C5            G5     A5              B5  A5G5
  Gtrs II, III
  E. S +E   E  +E   E  S E.   S E S +E  E S S S S S S E
|---------------------------|---------------------------|
|---------------------------|---------------------------|
|---------------------------|---------------------------|
|-2--0-(0)-10-(10)-10-10-5--|-5s7-7-(7)-7-x-x-7s9-9-7-5-|
|-2--0-(0)-10-(10)-10-10-5--|-5s7-7-(7)-7-x-x-7s9-9-7-5-|
|-2--0-(0)-10-(10)-10-10-5--|-5s7-7-(7)-7-x-x-7s9-9-7-5-|


  E5     D5      C5                  G5
  Gtr IV
  S  S S S  S  S  S S   S  S  S S  S S  S S
|-0--0-0-0--0--0--0-0---0--0--0-0--0-0--0-0-|
|-5--5-5-5--5--5--5-5---5--5--5-5--5-5--5-5-|
|-------------------------------------------|
|-------------------------------------------|
|-------------------------------------------|
|-------------------------------------------|
|
| Gtrs II, III
| E.     S +E     E    +E     E    S E.
|-------------------------------------------|
|-------------------------------------------|
|-------------------------------------------|
|-2------0-(0)---10---(10)---10---10-5------|
|-2------0-(0)---10---(10)---10---10-5------|
|-2------0-(0)---10---(10)---10---10-5------|


    A5                    B5  A5G5
  S S S S  S  S S S S S S S S S S S
|-0-0-0-0--0--0-0-0-0-0-0-0-0-0-0-0-|
|-5-5-5-5--5--5-5-5-5-5-5-5-5-5-5-5-|
|-----------------------------------|
|-----------------------------------|
|-----------------------------------|
|-----------------------------------|
|
| S E   S +E    E   S S S S S S E
|-----------------------------------|
|-----------------------------------|
|-----------------------------------|
|-5s7---7-(7)---7---x-x-7s9-9-7-5---|
|-5s7---7-(7)---7---x-x-7s9-9-7-5---|
|-5s7---7-(7)---7---x-x-7s9-9-7-5---|


  E5     D5      C5                  G5
  S  S S S  S  S  S S   S  S  S S  S S  S S
|-0--0-0-0--0--0--0-0---0-----0-0--0-0--0-0-|
|-5--5-5-5--5--5--5-5---5s=7--7-7--7-7--7-7-|
|-------------------------------------------|
|-------------------------------------------|
|-------------------------------------------|
|-------------------------------------------|
|
| E.     S +E     E    +E     E    S E.
|-------------------------------------------|
|-------------------------------------------|
|-------------------------------------------|
|-2------0-(0)---10---(10)---10---10-5------|
|-2------0-(0)---10---(10)---10---10-5------|
|-2------0-(0)---10---(10)---10---10-5------|


    A5                      B5    A5 G5
  S S S S  S  S S S S  S  S  S  S  S  S  S
|-0---0-0--0--0-0-0-0-----0--0--0--0--0--0-|
|-7s8-8-8--8--8-8-8-8s10-10-10-10-10-10-10-|
|------------------------------------------|
|------------------------------------------|
|------------------------------------------|
|------------------------------------------|
|
| S E   S +E    E   S  S  S  S  S  S  E
|------------------------------------------|
|------------------------------------------|
|------------------------------------------|
|-5s7---7-(7)---7---x--x--7s=9--9--7--5----|
|-5s7---7-(7)---7---x--x--7s=9--9--7--5----|
|-5s7---7-(7)---7---x--x--7s=9--9--7--5----|


  E5       D5        C5                     G5
   S  S  S  S  S   S  S  S   S   S  S  S  S  S   S  S
|--0-----0--0--0---0--0--0---0---0--0--0--0--0---0--0-|
|-10s15-15-15-15--15-15-15--15--15-15-15-15-15--15-15-|
|-----------------------------------------------------|
|-----------------------------------------------------|
|-----------------------------------------------------|
|-----------------------------------------------------|
|
|  E.       S +E      E     +E      E     S  E.
|-----------------------------------------------------|
|-----------------------------------------------------|
|-----------------------------------------------------|
|--2--------0-(0)----10----(10)----10----10--5--------|
|--2--------0-(0)----10----(10)----10----10--5--------|
|--2--------0-(0)----10----(10)----10----10--5--------|


     A5                             B5     A5G5
   S  S  S  S  S   S  S  S  S  S  S  S  Q
|--0--0--0--0--0---0--0--0--0--0--0--0--0-------||
|-15-15-15-15-15--15-15-15-15-15-15-15-15\------||
|-----------------------------------------------||
|-----------------------------------------------||
|-----------------------------------------------||
|-----------------------------------------------||
|
|  S  E     S +E      E     S  S  S  S  S  S E
|-----------------------------------------------||
|-----------------------------------------------||
|-----------------------------------------------||
|--5s=7-----7-(7)-----7-----x--x--7s=9--9--7-5--||
|--5s=7-----7-(7)-----7-----x--x--7s=9--9--7-5--||
|--5s=7-----7-(7)-----7-----x--x--7s=9--9--7-5--||


   Verse
    N.C.
    Gtr II
    E. S +E  E +E  E S E.   S E S +E  E S S S S S S E
||------------------------|----------------------------||
||o-----------------------|---------------------------o||
||------------------------|----------------------------||
||------------------------|----------------------------||
||o----------3-(3)-3-3----|---------------------------o||
||--2--0-(0)-----------5--|-5s7-7-(7)-7-x-x-7s9-9-7-5--||


   E.  S   +E    E   +E   E S E.     S   E S +E  E S S S S S S E
|--------------------------------|-------------------------------|
|--------------------------------|-------------------------------|
|--------------------------------|-------------------------------|
|--------------------------------|-------------------------------|
|----------------3---(3)--3-3----|-------------------------------|
|--2---0---(0)----------------5--|---5s==7-7-(7)-7-x-x-7s9-9-7-5-|
|
| Gtr I
|  E.  S   +E    E   +H             +W
|--------------------------------|-------------------------------|
|-<7>----------------------------|-------------------------------|
|-----<5>-(<5>)------------------|-------------------------------|
|---------------<5>-(<5>)--------|-(<5>)-------------------------|
|--------------------------------|-------------------------------|
|--------------------------------|-------------------------------|


  E. S +E  E +E  E S E.   S E S +E  E S S S S S S E
|-----------------------|---------------------------|
|-----------------------|---------------------------|
|-----------------------|---------------------------|
|-----------------------|---------------------------|
|----------3-(3)-3-3----|---------------------------|
|-2--0-(0)-----------5--|-5s7-7-(7)-7-x-x-7s9-9-7-5-|


 Pre-Chorus
  Esus2                      D
  Gtrs I, II
  E. S S S E S S S S E S S   E. S S S E S S S S E S S
|--------------------------|--------------------------|
|--------------------------|--------------------------|
|--------------------------|--------------------------|
|-4--4-4-4-4-4-4-4-4-4-4-4-|-4--4-4-4-4-4-4-4-4-4-4-4-|
|-2--2-2-2-2-2-2-2-2-2-2-2-|-0--0-0-0-0-0-0-0-0-0-0-0-|
|-2--2-2-2-2-2-2-2-2-2-2-2-|-0--0-0-0-0-0-0-0-0-0-0-0-|


  Asus2                              C5
  E.     S S S E   S S S S E   S S   E   S S S S S S q  Q
|--------------------------0-------|-----------------------||
|--------------------------0-------|-----3-3-3-3-3-3-3-----||
|-4------4-4-4-4---4-4-4-4-4---4-4-|-5---5-5-5-5-5-5-5-----||
|-2------2-2-2-2---2-2-2-2-2---2-2-|-5---5-5-5-5-5-5-5-----||
|-0------0-0-0-0---0-0-0-0-0---0-0-|-3---3-3-3-3-3-3-3-----||
|----------------------------------|-----------------------||
|
| Gtr IV
| <                <
| S  S S S S S S S S S S S S S S S   S S S S S S S S q  Q
|-0--0-0-0-0-0-0-0-0-0-0-0-0-0-0-0-|-0-0-0-0-0-0-0-0-0-----||
|-5--5-5-5-5-5-5-5-5-5-5-5-5-5-5-5-|-5-5-5-5-5-5-5-5-5-----||
|----------------------------------|-----------------------||
|----------------------------------|-----------------------||
|----------------------------------|-----------------------||
|----------------------------------|-----------------------||


   Chorus
    E5       D5      DsD52   A5     C5            D5
    Gtrs II, III
    E. S +E  E +E  E E S S   E. S E  E  +E   E  E S S
||-------------------------|---------------------------||
||o------------------3-----|--------------------------o||
||-------------------2-----|---------------------------||
||--2--2-(2)-0-(0)-0-0-0-0-|-7--7-0-10-(10)-10-10-0-0--||
||o-2--2-(2)-0-(0)-0-0-0-0-|-7--7-0-10-(10)-10-10-0-0-o||
||--2--2-(2)-0-(0)-0-0-0-0-|-7--7-0-10-(10)-10-10-0-0--||


  E5             D5           DsusD5
  Gtrs II, III
  E.     S +E    E   +E   E   E   S S
|-----------------------------0-------|
|-----------------------------3-------|
|-----------------------------2-------|
|-2------2-(2)---0---(0)--0---0---0-0-|
|-2------2-(2)---0---(0)--0---0---0-0-|
|-2------2-(2)---0---(0)--0---0---0-0-|
|
| Gtr IV
| S  S S S  S  S S S  S S S S S S S S
|-0--0-0-0--0--0-0-0--0---0-0-0-0-0-0-|
|-5--5-5-5--5--5-5-5--5s7-7-7-7-7-7-7-|
|-------------------------------------|
|-------------------------------------|
|-------------------------------------|
|-------------------------------------|


  A5          C5                      D5
  E.    S E    E    +E     E     E     S  S
|-------------------------------------------|
|-------------------------------------------|
|-------------------------------------------|
|-7-----7-0---10---(10)---10----10-----0--0-|
|-7-----7-0---10---(10)---10----10-----0--0-|
|-7-----7-0---10---(10)---10----10-----0--0-|
|
| S S S S S S  S S   S  S  S  S  S  S  S  S
|-0---0-0-0-0--0-0---0-----0--0--0--0--0--0-|
|-7s8-8-8-8-8--8-8---8s10-10-10-10-10-10-10-|
|-------------------------------------------|
|-------------------------------------------|
|-------------------------------------------|
|-------------------------------------------|


   E.       S +E      E    +E      E     E     S  S
|---------------------------------------------------|
|---------------------------------------------------|
|---------------------------------------------------|
|--2--------2-(2)-----0----(0)-----0-----0-----0--0-|
|--2--------2-(2)-----0----(0)-----0-----0-----0--0-|
|--2--------2-(2)-----0----(0)-----0-----0-----0--0-|
|
|  S  S  S  S  S   S  S  S  S   S  S  S  S  S  S  S
|--0-----0--0--0---0--0--0--0---0--0--0--0--0--0--0-|
|-10s15-15-15-15--15-15-15-15--15-15-15-15-15-15-15-|
|---------------------------------------------------|
|---------------------------------------------------|
|---------------------------------------------------|
|---------------------------------------------------|


   E.        S  E     E     +E      S  S  Q
|---------------------------------------------||
|---------------------------------------------||
|---------------------------------------------||
|--7---------7--0----10----(10)----10-10-10\--||
|--7---------7--0----10----(10)----10-10-10\--||
|--7---------7--0----10----(10)----10-10-10\--||
|
|  S   S  S  S  S  S  S  S   S   S  S  S  Q
|--0---0--0--0--0--0--0--0---0---0--0--0--0---||
|-15--15-15-15-15-15-15-15--15--15-15-15-15\--||
|---------------------------------------------||
|---------------------------------------------||
|---------------------------------------------||
|---------------------------------------------||


 Verse 2
  N.C.
  Gtr II
  E. S +E  E +E  E S E.   S E S +E  E S S S S S S E
|-----------------------|---------------------------|
|-----------------------|---------------------------|
|-----------------------|---------------------------|
|-----------------------|---------------------------|
|----------3-(3)-3-3----|---------------------------|
|-2--0-(0)-----------5--|-5s7-7-(7)-7-x-x-7s9-9-7-5-|


  E. S +E  E +E  E  S E.     S  E S +E  E S S S S S S E
|------------------------|------------------------------|
|------------------------|------------------------------|
|------------------------|------------------------------|
|------------------------|------------------------------|
|----------3-(3)-3--3----|------------------------------|
|-2--0-(0)------------5--|---5s=7-7-(7)-7-x-x-7s9-9-7-5-|
|
| Gtr IV
|                   <
|                            ~~~~
| H.                Q       +W
|------------------------|------------------------------|
|------------------12----|-(12)-------------------------|
|------------------------|------------------------------|
|------------------------|------------------------------|
|------------------------|------------------------------|
|------------------------|------------------------------|


    E.  S   +E    E   +E   E S E.     S   E   S +E  E S S S S S S E
|---------------------------------|---------------------------------|
|---------------------------------|---------------------------------|
|---------------------------------|---------------------------------|
|---------------------------------|---------------------------------|
|-----------------3---(3)--3-3----|---------------------------------|
|---2---0---(0)----------------5--|---5s==7---7-(7)-7-x-x-7s9-9-7-5-|
|
|   ~~~~
|  +W                                 E     E    Q    Q       Q
|---------------------------------|---------------------------------|
|-(12)----------------------------|---------x---------x-------------|
|---------------------------------|---------------------------------|
|---------------------------------|---------------------------------|
|---------------------------------|---------------------------------|
|---------------------------------|---------------------------------|
|
| Gtr I
|   E.  S   +E    E   +H             +W
|---------------------------------|---------------------------------|
|--<7>----------------------------|---------------------------------|
|------<5>-(<5>)------------------|---------------------------------|
|----------------<5>-(<5>)--------|-(<5>)---------------------------|
|---------------------------------|---------------------------------|
|---------------------------------|---------------------------------|


  E. S +E  E +E  E S E.   S E S +E   E   S  S  S S  S  S  E
|-----------------------|-----------------------------------|
|-----------------------|-----------------------------------|
|-----------------------|-----------------------------------|
|-----------------------|-----------------------------------|
|----------3-(3)-3-3----|-----------------------------------|
|-2--0-(0)-----------5--|-5s7-7-(7)--7---x--x--7s9--9--7--5-|
|
|                                                         ~~
| W                       Q      E   E  +E     E    S  S  E
|-----------------------|-----------10-(10)-----------------|
|-----------------------|---------------------13---12h13-12-|
|-----------------------|-----------------------------------|
|-----------------------|-----------------------------------|
|-----------------------|-----------------------------------|
|-----------------------|-----------------------------------|


 Pre-Chorus 2
  Esus2                            D
  Gtrs I, II
    E. S   S   S E S S S S E S S    E. S   S  S E   S  S S S   E  S S
|--------------------------------|------------------------------------|
|--------------------------------|------------------------------------|
|--------------------------------|------------------------------------|
|---4--4---4---4-4-4-4-4-4-4-4-4-|--4--4---4--4-4---4--4-4-4---4--4-4-|
|---2--2---2---2-2-2-2-2-2-2-2-2-|--0--0---0--0-0---0--0-0-0---0--0-0-|
|---2--2---2---2-2-2-2-2-2-2-2-2-|--0--0---0--0-0---0--0-0-0---0--0-0-|
|
|                                   <                          >
|   ~~~~~~~~~~~                     ~~~~~~~~~~~~~~~~~~~~~~~~~~~~~~
|  +Q     +Q       H                Q     +Q       +Q         +Q
|--------------------------------|------------------------------------|
|-(12)---(12)\-------------------|-12----(12)-----(12)-------(12)-----|
|--------------------------------|------------------------------------|
|--------------------------------|------------------------------------|
|--------------------------------|------------------------------------|
|--------------------------------|------------------------------------|


  Asus2                              C5
  E.     S S S E   S S S S E   S S   E   S S S S S S q  Q
|--------------------------0-------|-----------------------||
|--------------------------0-------|-----3-3-3-3-3-3-3-----||
|-4------4-4-4-4---4-4-4-4-4---4-4-|-5---5-5-5-5-5-5-5-----||
|-2------2-2-2-2---2-2-2-2-2---2-2-|-5---5-5-5-5-5-5-5-----||
|-0------0-0-0-0---0-0-0-0-0---0-0-|-3---3-3-3-3-3-3-3-----||
|----------------------------------|-----------------------||
|
| Gtr IV
| <                <
| S  S S S S S S S S S S S S S S S   S S S S S S S S q  Q
|-0--0-0-0-0-0-0-0-0-0-0-0-0-0-0-0-|-0-0-0-0-0-0-0-0-0-----||
|-5--5-5-5-5-5-5-5-5-5-5-5-5-5-5-5-|-5-5-5-5-5-5-5-5-5-----||
|----------------------------------|-----------------------||
|----------------------------------|-----------------------||
|----------------------------------|-----------------------||
|----------------------------------|-----------------------||


   Chorus 2
    E5       D5      DsD52   A5     C5            D5
    Gtrs II, III
    E. S +E  E +E  E E S S   E. S E  E  +E   E  E S S  3x
||-------------------------|---------------------------||
||o------------------3-----|--------------------------o||
||-------------------2-----|---------------------------||
||--2--2-(2)-0-(0)-0-0-0-0-|-7--7-0-10-(10)-10-10-0-0--||
||o-2--2-(2)-0-(0)-0-0-0-0-|-7--7-0-10-(10)-10-10-0-0-o||
||--2--2-(2)-0-(0)-0-0-0-0-|-7--7-0-10-(10)-10-10-0-0--||


  E5       D5              A5     C5
  E. S +E  E +E  E E S S   E. S E  E  +E   S  S  S   S   S   S
|------------------------|--------------------------------------|
|------------------------|--------------------------------------|
|------------------------|----------------------<5>-<5>-<5>-<5>-|
|-2--2-(2)-0-(0)-0-0-0-0-|-7--7-0-10-(10)-10-10-<5>-<5>-<5>-<5>-|
|-2--2-(2)-0-(0)-0-0-0-0-|-7--7-0-10-(10)-10-10-----------------|
|-2--2-(2)-0-(0)-0-0-0-0-|-7--7-0-10-(10)-10-10-----------------|


  $
  E5             D5
  E.     S +S  S E   +E    E   E   S S
|------------------------------0-------|
|------------------------------3-------|
|------------------------------2-------|
|-2------2-(2)-2-0---(0)---0---0---0-0-|
|-2------2-(2)-2-0---(0)---0---0---0-0-|
|-2------2-(2)-2-0---(0)---0---0---0-0-|
|
| Gtr IV
| S  S S S  S  S S S  S  S S S S S S S
|-0--0-0-0--0--0-0-0--0--0-0-0-0-0-0-0-|
|-5--5-5-5--5--5-5-5--5--5-5-5-5-5-5-5-|
|--------------------------------------|
|--------------------------------------|
|--------------------------------------|
|--------------------------------------|
|
| Gtr I
| W
|--------------------------------------|
|--------------------------------------|
|--------------------------------------|
|--------------------------------------|
|--------------------------------------|
|--------------------------------------|


  A5                C5
   E.      S   E     E     +E     E    E   S S
|----------------------------------------------|
|----------------------------------------------|
|----------------------------------------------|
|--7-------7---0----10----(10)---10---10---0-0-|
|--7-------7---0----10----(10)---10---10---0-0-|
|--7-------7---0----10----(10)---10---10---0-0-|
|
|  S  S S  S   S  S  S  S   S  S  S S  S S S S
|--0--0-0--0---0--0--0--0---0--0--0-0--0-0-0-0-|
|--5--5-5--5---5--5--5--5---5--5--5-5--5-5-5-5-|
|----------------------------------------------|
|----------------------------------------------|
|----------------------------------------------|
|----------------------------------------------|
|
|  E.      S  +E     E     +H
|----------------------------------------------|
|-<7>------------------------------------------|
|---------<5>-(5)------------------------------|
|-------------------<5>----(5)-----------------|
|----------------------------------------------|
|----------------------------------------------|


  E5                D5
    E.      S +S  S E   +E    E   E   S S
|---------------------------------0-------|
|---------------------------------3-------|
|---------------------------------2-------|
|---2-------2-(2)-2-0---(0)---0---0---0-0-|
|---2-------2-(2)-2-0---(0)---0---0---0-0-|
|---2-------2-(2)-2-0---(0)---0---0---0-0-|
|
| Gtr IV
|   S   S S S  S  S S S  S  S S S S S S S
|---0---0-0-0--0--0-0-0--0--0-0-0-0-0-0-0-|
|---5---5-5-5--5--5-5-5--5--5-5-5-5-5-5-5-|
|-----------------------------------------|
|-----------------------------------------|
|-----------------------------------------|
|-----------------------------------------|
|
| Gtr I
|  +W
|-----------------------------------------|
|-----------------------------------------|
|-----------------------------------------|
|-(<5>)-----------------------------------|
|-----------------------------------------|
|-----------------------------------------|


  A5              C5
    E.      S E    E    +E     E    E   S S
|-------------------------------------------|
|-------------------------------------------|
|-------------------------------------------|
|---7-------7-0---10---(10)---10---10---0-0-|
|---7-------7-0---10---(10)---10---10---0-0-|
|---7-------7-0---10---(10)---10---10---0-0-|
|
|   S   S S S S S  S S   S  S  S S  S S S S
|---0---0-0-0-0-0--0-0---0--0--0-0--0-0-0-0-|
|---5---5-5-5-5-5--5-5---5--5--5-5--5-5-5-5-|
|-------------------------------------------|
|-------------------------------------------|
|-------------------------------------------|
|-------------------------------------------|
|
|  +W
|-------------------------------------------|
|-------------------------------------------|
|-------------------------------------------|
|-(<5>)-------------------------------------|
|-------------------------------------------|
|-------------------------------------------|


  E5             D5
  E.     S +S  S E   +E   E   E   S S
|-----------------------------0-------|
|-----------------------------3-------|
|-----------------------------2-------|
|-2------2-(2)-2-0---(0)--0---0---0-0-|
|-2------2-(2)-2-0---(0)--0---0---0-0-|
|-2------2-(2)-2-0---(0)--0---0---0-0-|
|
| Gtr III
| S  S S S  S  S S S  S S S S S S S S
|-0--0-0-0--0--0-0-0--0---0-0-0-0-0-0-|
|-5--5-5-5--5--5-5-5--5s7-7-7-7-7-7-7-|
|-------------------------------------|
|-------------------------------------|
|-------------------------------------|
|-------------------------------------|
|
| W
|-------------------------------------|
|-------------------------------------|
|-------------------------------------|
|-------------------------------------|
|-------------------------------------|
|-------------------------------------|


                                          To Coda
  A5                C5
   E.      S   E     E     +E      E     E     S  S
|---------------------------------------------------|
|---------------------------------------------------|
|---------------------------------------------------|
|--7-------7---0----10----(10)----10----10-----0--0-|
|--7-------7---0----10----(10)----10----10-----0--0-|
|--7-------7---0----10----(10)----10----10-----0--0-|
|
|  S  S S  S   S  S  S  S   S   S  S  S  S  S  S  S
|--0----0--0---0--0--0--0---0------0--0--0--0--0--0-|
|--7s=8-8--8---8--8--8--8---8s=10-10-10-10-10-10-10-|
|---------------------------------------------------|
|---------------------------------------------------|
|---------------------------------------------------|
|---------------------------------------------------|
|
|  E.      S  +E     E     +H
|---------------------------------------------------|
|-<7>-----------------------------------------------|
|---------<5>-(5)-----------------------------------|
|-------------------<5>----(5)----------------------|
|---------------------------------------------------|
|---------------------------------------------------|


  E5                  D5
   E.        S +S   S  E    +E      E     E     S  S
|-----------------------------------------0----------|
|-----------------------------------------3----------|
|-----------------------------------------2----------|
|--2---------2-(2)--2--0----(0)-----0-----0-----0--0-|
|--2---------2-(2)--2--0----(0)-----0-----0-----0--0-|
|--2---------2-(2)--2--0----(0)-----0-----0-----0--0-|
|
|  S   S  S  S  S   S  S  S  S   S  S  S  S  S  S  S
|--0------0--0--0---0--0--0--0---0--0--0--0--0--0--0-|
|-10s=15-15-15-15--15-15-15-15--15-15-15-15-15-15-15-|
|----------------------------------------------------|
|----------------------------------------------------|
|----------------------------------------------------|
|----------------------------------------------------|
|
|  W
|----------------------------------------------------|
|----------------------------------------------------|
|----------------------------------------------------|
|-<5>------------------------------------------------|
|----------------------------------------------------|
|----------------------------------------------------|


  A5                   C5
    E.         S  E     E     +E      S  S  Q
|-----------------------------------------------||
|-----------------------------------------------||
|-----------------------------------------------||
|---7----------7--0----10----(10)----10-10-10\--||
|---7----------7--0----10----(10)----10-10-10\--||
|---7----------7--0----10----(10)----10-10-10\--||
|
|   S    S  S  S  S  S  S  S   S   S  S  S  Q
|---0----0--0--0--0--0--0--0---0---0--0--0--0---||
|--15---15-15-15-15-15-15-15--15--15-15-15-15\--||
|-----------------------------------------------||
|-----------------------------------------------||
|-----------------------------------------------||
|-----------------------------------------------||
|
|  +W
|-----------------------------------------------||
|-----------------------------------------------||
|-----------------------------------------------||
|-(<5>)-----------------------------------------||
|-----------------------------------------------||
|-----------------------------------------------||


   Bridge
    E5                G                 C5                  G/C C5G/C
    Gtr I
    PM------------------------------------------------------------|
    E E E E E E E E   E E E E E E E E   E E E E E E E E   E E E E E E E E
||------------------|-----------------|-----------------|-------------------||
||o-----------------|-----------------|-----------------|-------------0----o||
||------------------|-----------------|-5-5-5-5-5-5-5-5-|-5-4---5-4---4-----||
||------------------|-----------------|-5-5-5-5-5-5-5-5-|-5-5-5-5-5-5-5-----||
||o-2-2-2-2-2-2-2-2-|-2-2-2-2-2-2-2-0-|-3-3-3-3-3-3-3-3-|-3-3-3-3-3-3-3-0--o||
||--2-2-2-2-2-2-2-2-|-5-5-5-5-5-5-5---|-----------------|-------------------||


  E5                G                   C5                    G/C C5G/C
  Gtr I
  PM----------------------------------------------------------------|
  E E E E E E E E    E  E E E E E E E   E E E E E E E E    E  E E E E E E E
|-----------------|-------------------|-----------------|-------------------|
|-----------------|-------------------|-----------------|---------------0---|
|-----------------|-------------------|-5-5-5-5-5-5-5-5-|--5--4---5-4---4---|
|-----------------|-------------------|-5-5-5-5-5-5-5-5-|--5--5-5-5-5-5-5---|
|-2-2-2-2-2-2-2-2-|--2--2-2-2-2-2-2-0-|-3-3-3-3-3-3-3-3-|--3--3-3-3-3-3-3-0-|
|-2-2-2-2-2-2-2-2-|--5--5-5-5-5-5-5---|-----------------|-------------------|
|
| Gtr III
| W                 +W                  W                 +W
|-----------------|-------------------|-----------------|-------------------|
|-----------------|-------------------|-----------------|-------------------|
|-----------------|-------------------|-5---------------|-(5)---------------|
|-2---------------|-(2)---------------|-5---------------|-(5)---------------|
|-2---------------|-(2)---------------|-3---------------|-(3)---------------|
|-2---------------|-(2)---------------|-----------------|-------------------|


  E5                G
  PM---------------------------------
  E E E E E E E E   E E E E E E E E
|-----------------|-----------------|
|-----------------|-----------------|
|-----------------|-----------------|
|-----------------|-----------------|
|-2-2-2-2-2-2-2-2-|-2-2-2-2-2-2-2-0-|
|-2-2-2-2-2-2-2-2-|-5-5-5-5-5-5-5---|
|
| W                 W
|-----------------|-----------------|
|-----------------|-----------------|
|-----------------|-----------------|
|-----------------|-----------------|
|-----------------|-----------------|
|-----------------|-----------------|


  C5
                                    Gtr II
  <
 -----|
  E E E E E E E E    E  E E E S S E S S S S
|-----------------|--------------------------||
|-----------------|--------------------------||
|-5-5-5-5-5-5-5-5-|--5--4-4-4----------------||
|-5-5-5-5-5-5-5-5-|--5--5-5-5-x-x---x-x-0-0--||
|-3-3-3-3-3-3-3-3-|--3--3-3-3-x-x---x-x-0-0--||
|-----------------|-----------x-x---x-x-0-0--||
|
| W                 +W
|-----------------|--------------------------||
|-----------------|--------------------------||
|-5---------------|-(5)----------------------||
|-5---------------|-(5)----------------------||
|-3---------------|-(3)----------------------||
|-----------------|--------------------------||


   Chorus 3
    E5       D5      DsD52   A5     C5            D5
    Gtrs II, III
    E. S +E  E +E  E E S S   E. S E  E  +E   E  E S S
||-------------------0-----|---------------------------||
||o------------------3-----|--------------------------o||
||-------------------2-----|---------------------------||
||--2--2-(2)-0-(0)-0-0-0-0-|-7--7-0-10-(10)-10-10-0-0--||
||o-2--2-(2)-0-(0)-0-0-0-0-|-7--7-0-10-(10)-10-10-0-0-o||
||--2--2-(2)-0-(0)-0-0-0-0-|-7--7-0-10-(10)-10-10-0-0--||


  E5       D5      DsD52   A5          C5             D5
  E. S +E  E +E  E E S S    E.  S   E   E   +E   E  E S S
|------------------0-----|--------------------------------|
|------------------3-----|--------------------------------|
|------------------2-----|--------------------------------|
|-2--2-(2)-0-(0)-0-0-0-0-|--7---7---0--10--(10)-10-10-0-0-|
|-2--2-(2)-0-(0)-0-0-0-0-|--7---7---0--10--(10)-10-10-0-0-|
|-2--2-(2)-0-(0)-0-0-0-0-|--7---7---0--10--(10)-10-10-0-0-|
|
| Gtr I
| W                         E.  S  +E   E   +H
|------------------------|--------------------------------|
|------------------------|-<7>----------------------------|
|------------------------|-----<5>-(5)--------------------|
|------------------------|-------------<5>--(5)-----------|
|------------------------|--------------------------------|
|------------------------|--------------------------------|


                                           D.S. al Coda
  E5       D5              A5       C5
  E. S +E  E +E  E E S S   E. S S S  E E E  S   S   S   S
|------------------------|---------------------------------||
|------------------------|-----------------<5>-<5>-<5>-<5>-||
|------------------------|-----------------<5>-<5>-<5>-<5>-||
|-2--2-(2)-0-(0)-0-0-0-0-|-7--7-0-0-10---0-<5>-<5>-<5>-<5>-||
|-2--2-(2)-0-(0)-0-0-0-0-|-7--7-0-0-10---0--0---0---0---0--||
|-2--2-(2)-0-(0)-0-0-0-0-|-7--7-0-0-10---0--0---0---0---0--||


  &
  E5                 D5
   E.       S +S   S  E    +E      E     E     S  S
|----------------------------------------0----------|
|----------------------------------------3----------|
|----------------------------------------2----------|
|--2--------2-(2)--2--0----(0)-----0-----0-----0--0-|
|--2--------2-(2)--2--0----(0)-----0-----0-----0--0-|
|--2--------2-(2)--2--0----(0)-----0-----0-----0--0-|
|
| Gtr IV
|  S  S  S  S  S   S  S  S  S   S  S  S  S  S  S  S
|--0-----0--0--0---0--0--0--0---0--0--0--0--0--0--0-|
|-10s15-15-15-15--15-15-15-15--15-15-15-15-15-15-15-|
|---------------------------------------------------|
|---------------------------------------------------|
|---------------------------------------------------|
|---------------------------------------------------|


  A5                 C5
   E.        S  E     E     +E      S  S  Q
|---------------------------------------------||
|---------------------------------------------||
|---------------------------------------------||
|--7---------7--0----10----(10)----10---------||
|--7---------7--0----10----(10)----10---------||
|--7---------7--0----10----(10)----10---------||
|
|  S   S  S  S  S  S  S  S   S   S  S  S  Q
|--0---0--0--0--0--0--0--0---0---0--0--0--0---||
|-15--15-15-15-15-15-15-15--15--15-15-15-15\--||
|---------------------------------------------||
|---------------------------------------------||
|---------------------------------------------||
|---------------------------------------------||


 Outro
  E5       C5            G5     A5              B5  A5G5
  Gtrs II, III
  E. S +E   E  +E   E  S E.   S E S +E  E S S S S S S E
|---------------------------|---------------------------|
|---------------------------|---------------------------|
|---------------------------|---------------------------|
|-2--0-(0)-10-(10)-10-10-5--|-5s7-7-(7)-7-x-x-7s9-9-7-5-|
|-2--0-(0)-10-(10)-10-10-5--|-5s7-7-(7)-7-x-x-7s9-9-7-5-|
|-2--0-(0)-10-(10)-10-10-5--|-5s7-7-(7)-7-x-x-7s9-9-7-5-|


  E5 D5    C5            G5     A5              B5  A5G5  E5
  Gtrs II, III
  E. S +E   E  +E   E  S E.   S E S +E  E S S S S S S E   E E Q  H
|---------------------------|---------------------------|-------------*|
|---------------------------|---------------------------|-------------*|
|---------------------------|---------------------------|-------------*|
|-2--0-(0)-10-(10)-10-10-5--|-5s7-7-(7)-7-x-x-7s9-9-7-5-|-2-x---------*|
|-2--0-(0)-10-(10)-10-10-5--|-5s7-7-(7)-7-x-x-7s9-9-7-5-|-2-x---------*|
|-2--0-(0)-10-(10)-10-10-5--|-5s7-7-(7)-7-x-x-7s9-9-7-5-|-2-x---------*|




--------------------------------------------------------------------------------


Duration Legend
---------------
W - whole; H - half; Q - quarter; E - 8th; S - 16th; T - 32nd; X - 64th; a - acciaccatura
+ - note tied to previous; . - note dotted; .. - note double dotted
Uncapitalized letters represent notes that are staccato (1/2 duration)
Irregular groupings are notated above the duration line
Duration letters will always appear directly above the note/fret number it represents the
duration for.  Duration letters with no fret number below them represent rests.  Multi-
bar rests are notated in the form Wxn, where n is the number of bars to rest for.  Low
melody durations appear below the staff

Tablature Legend
----------------
 h   - hammer-on
 p   - pull-off
 b   - bend
 pb  - pre-bend
 r   - bend release (if no number after the r, then release immediately)
 /\  - slide into or out of (from/to "nowhere")
 s   - legato slide
 S   - shift slide
 - natural harmonic
[n]  - artificial harmonic
n(n) - tapped harmonic
 ~   - vibrato
 tr  - trill
 T   - tap
 TP  - trem. picking
 PM  - palm muting
\n/  - tremolo bar dip; n = amount to dip
 \n  - tremolo bar down
 n/  - tremolo bar up
/n\  - tremolo bar inverted dip
 =   - hold bend; also acts as connecting device for hammers/pulls
 <> - volume swell (louder/softer)
 x   - on rhythm slash represents muted slash
 o   - on rhythm slash represents single note slash

Misc Legend
-----------
 |  - bar
||  - double bar
||o - repeat start
o|| - repeat end
*|  - double bar (ending)
 :  - bar (freetime)
 $  - Segno
 &  - Coda
Tempo markers -  = BPM(8/16=s8/s16), where s8 = swing 8ths, s16 = swing 16ths


            
            
Suggest correction
Creating personal tab
Creating personal tab
You can edit any tab online and save it as your Personal.

You can edit, replace or remove any tab part or add personal notes – all changes will be seen only by you.

Personal tabs can be accessed anytime from any device, even offline.
Learn more »
comments
print report bad tab
guest
You may want to rate the tab now too:
select rating
Wanna post a correction for this tab? Suggest correction