Oops, an error
Loading. Please wait.

Hiding Place tab

version 2
version 2

Whole song

637 views 3 this week
3 commentsread comments
1 2 3 4 5
1 last vote to show rating
add to favorites
×
Save as Personal and add changes to this tab that will be seen only by you. Learn more ›
×
You can save this tab as Personal to edit and correct it or add notes. All changes will be seen only by you. Learn more »
launch autoscroll
font size
0
reset
how to read this tab
guitar tuner
edit
Autoscroll
slow
fast
+/-
esc
set tempo
stop
ok so i have been messing around with hiding place and after watching videos live and 
some hard listening this is what i have come up with.
not super right on but damn well near it.

Hiding place
Smile Empty Soul
Tuning-D#G#C#F#A#D#


intro/verse 1&2 (Figure the strumming out its not really that hard)
*-----------------------------------------------------------|
*-----------------------------------------------------------|
*--13---6-6\4-4-4-4-4---------------------------------------|
*--x----x-x\x-x-6-4-2---------------------------------------|   x4
*--11---4-4\2-2-2-2-2---------------------------------------|
*--0----0-0-0-0-0-0-0---------------------------------------|



Chorus/outro
*-------0------------0-0-0-----0----------------------------|
*-------3------------3-3-3-----3----------------------------|
*-------2--13--------2-2h3-----2----------------------------|
*--6----0--x----6----0-0-0--6--0--4--6--8-------------------|   x1
*--4----0--11---4----0-0-0--4--0--2--4--6-------------------|
*--4-------0----4-----------4-----2--4--6-------------------|



verse riff  x4
chorus x1


*-----------------------------------------------------------|
*-----------------------------------------------------------|
*--13--13\11-11/14--4--5------------------------------------|
*--x---x--x--x--x---5--5------------------------------------|   x4
*--11--11\9--9-/12--4--4------------------------------------|
*--0---0--0--0--0---4--4------------------------------------|


verse riff x1
outro x1

THEN!!!!

let it ring baby.
*------------------------------------------------------------|
*------------------------------------------------------------|
*--10--------------------------------------------------------|
*--10--------------------------------------------------------|
*--8---------------------------------------------------------|
*--8---------------------------------------------------------|

well thats all basically its just strumming and then you got it. the outro riff is 
slightly different than the chorus riff. make sure to keep an ear out for it. hopefully this 
helps all who have wanted to learn the song.
Suggest correction
Creating personal tab
Creating personal tab
You can edit any tab online and save it as your Personal.

You can edit, replace or remove any tab part or add personal notes – all changes will be seen only by you.

Personal tabs can be accessed anytime from any device, even offline.
Learn more »
Give kudos to tab author, rate the tab!
1 2 3 4 5
comments
print report bad tab
3 comments total.
0 reply
DustinDT 10 Aug 04, 2013 05:44 AM

*-----------------------------------------------------------|
*-----------------------------------------------------------|
*-------1--13--------1-1h2-----1----------------------------|
*--6----2--x----6----2-2-2--6--2--4--7--9-------------------|
*--4----2--11---4----2-2-2--4--2--2--5--7-------------------|
*--4-------0----4-----------4-----2--5--7-------------------|

0 reply
DustinDT 10 Aug 04, 2013 06:01 AM

Bridge

*-------------------------------------------------------
*-------------------------------------------------------
*-13-/-11/-12---3-/-5h6------------------------------------------
*-x----x---x----4-/-6-6----------------------------------------
*-11-/-9-/-14---4-/-6-6------------------------------------------
*-0----0---0----2-/-4-4----------------------------------------

guest
Wanna post a correction for this tab? Suggest correction