Oops, an error
Loading. Please wait.

Hit tab

version 1
version 1

Whole song

2,525 views 1 this week
5 commentsread comments
1 2 3 4 5
x 4
add to favorites
×
Save as Personal and add changes to this tab that will be seen only by you. Learn more ›
×
You can save this tab as Personal to edit and correct it or add notes. All changes will be seen only by you. Learn more »
launch autoscroll
font size
0
reset
how to read this tab
guitar tuner
edit
Autoscroll
slow
fast
+/-
esc
set tempo
stop
Author
Difficulty
----------------------------------------------------------------------------
                         The Hit - Smile Empty Soul
----------------------------------------------------------------------------
Tabbed by: Jeremy Cassell
Email: HollowRemorse@yahoo.com
This is my first tab so if there are any mistakes please E-Mail me!
I hope you enjoy this song as much as I do!!
Tuning: Standard EADGBE
                         Intro/Verse Tablature
e|-------------------------------------------------------------------------|
B|-------------------------------------------------------------------------|
G|--5--5--x--x--5--5--x--x--7--7--x--x--7--7--x--x-------------------------|
D|--6--6--x--x--6--6--x--x--8--8--x--x--8--8--x--x--3--3--x--x--3--3--x--x-|
A|--6--6--x--x--6--6--x--x--8--8--x--x--8--8--x--x--3--3--x--x--3--3--x--x-|
E|--4--4--x--x--4--4--x--x--6--6--x--x--6--6--x--x--1--1--x--x--1--1--x--x-|

e|-------------------------------------------------------------------------|
B|-------------------------------------------------------------------------|
G|--------------------------6--6--x--x--6--6--x--x--8--8--x--x--8--8--x--x-|
D|--3--3--x--x--3--3--x--x--6--6--x--x--6--6--x--x--8--8--x--x--8--8--x--x-|
A|--3--3--x--x--3--3--x--x--4--4--x--x--4--4--x--x--6--6--x--x--6--6--x--x-|
E|--1--1--x--x--1--1--x--x--4--4--x--x--4--4--x--x--6--6--x--x--6--6--x--x-|

e|-------------------------------------------------------------------------|
B|-------------------------------------------------------------------------|
G|--5--5--x--x--5--5--x--x--5--5--x--x--5--5--x--x-------------------------|
D|--8--8--x--x--8--8--x--x--8--8--x--x--8--8--x--x-------------------------|
A|--8--8--x--x--8--8--x--x--8--8--x--x--8--8--x--x-------------------------|
E|--6--6--x--x--6--6--x--x--6--6--x--x--6--6--x--x-------------------------|

        Play once for intro, then play it twice for the verse.

                            Chorus Chords
      G#/Ab    A#/Bb    Fm    ?    ?    A#/Bb    
e|------4--------6-------1----4----6------6--------------------------------|
B|------4--------6-------1----4----6------6--------------------------------|
G|------5--------7-------1----6----8------7--------------------------------|
D|------6--------8-------3----6----8------8--------------------------------|
A|------6--------8-------3----4----6------8--------------------------------|
E|------4--------6-------1----4----6------6--------------------------------|

            
            
Suggest correction
Creating personal tab
Creating personal tab
You can edit any tab online and save it as your Personal.

You can edit, replace or remove any tab part or add personal notes – all changes will be seen only by you.

Personal tabs can be accessed anytime from any device, even offline.
Learn more »
comments
print report bad tab
5 comments total. Showing first comments.
0 reply
IPxKiller 186 Sep 09, 2006 12:00 PM

Regular .. wow did they really went to a different sound cuz they always use C sharp tuning

0 reply
dertjoe 20 Oct 28, 2006 12:50 PM

not bad, a few rough spots, i played it in Drop Db tho

0 reply
guitarskate37 50 Apr 30, 2007 01:17 PM

nice tab although a few things are missing but good job

guest
You may want to rate the tab now too:
select rating
Wanna post a correction for this tab? Suggest correction