Oops, an error
Loading. Please wait.

Leave A Light On tab

271 views 1 this week
no commentswrite comment
1 2 3 4 5
2 more votes to show rating
add to favorites
×
Save as Personal and add changes to this tab that will be seen only by you. Learn more ›
×
You can save this tab as Personal to edit and correct it or add notes. All changes will be seen only by you. Learn more »
launch autoscroll
font size
0
reset
how to read this tab
guitar tuner
edit
Autoscroll
slow
fast
+/-
esc
set tempo
stop
okay first of all. i just tabbed the song today (and some of yesterday morning) as far 
as i know this is a complete and accurate tab.

Tabbed by- TheBeanbandit

song - leave a light on
artist - sean danielsen (of smile empty soul)
album - enjoy the process

the chords arent that hard to figure out. but you may have some trouble in
the beginning just listen to it while strumming lightly to figure out the
pattern (i use that technique to figure out the strumming patterns and i can
hear it too.)
   intro (x2)/verse (x4)              chorus (x1)
D#|---------------------------|-------|-----------|----------------|
A#|---------------------------|-------|---3---5-3-|----------------|
F#|---------------------7-6---|-7-6-4-|-9-2-9-4-2-|----------------|
C#|-4--6--4--6--6--7--6-----9-|-------|-7-0-7-2-0-|----------------|
G#|-4--4--4--4--0--0--0-------|-------|-7-0-7-2-0-|----------------|
C#|-4--4--4--4--0--0--0-------|-------|-7-0-7-2-0-|----------------|
                               ^^^this is an alternate way of playing the
last part in the verse (however i find it that the first way is easier.)

back to verse (x6)

chorus again (x2)

little breakdown thingy(x2)(only strum these once)x1
D#|---------|-----------   |-----------|-------------------|
A#|---5---3-|-----------   |---3---5-3-|-------------------|
F#|-9-4-9-2-|-----------   |-9-2-9-4-2-|-------------------|
C#|-7-2-7-0-|-----------   |-7-0-7-2-0-|-------------------|
G#|-7-2-7-0-|-----------   |-7-0-7-2-0-|-------------------|
C#|-7-2-7-0-|-----------   |-7-0-7-2-0-|-------------------|



outro (last chord strum once)x1
D#|---------------|
A#|---3---5-3-----|
F#|-9-2-9-4-2-----|
C#|-7-0-7-2-0-----|
G#|-7-0-7-2-0-----|
C#|-7-0-7-2-0-----|


and thats it. i wont get to make changes but if you have changes post them in
the comments section and state where the changes are made. the song isnt on
youtube yet but if you've bought the e.p. you should have no troubles
learning this song. have fun.

            
            
Suggest correction
Creating personal tab
Creating personal tab
You can edit any tab online and save it as your Personal.

You can edit, replace or remove any tab part or add personal notes – all changes will be seen only by you.

Personal tabs can be accessed anytime from any device, even offline.
Learn more »
Give kudos to tab author, rate the tab!
1 2 3 4 5
comments
print report bad tab
guest
Wanna post a correction for this tab? Suggest correction