Oops, an error
Loading. Please wait.

Morning Light tab

version 1
version 1

Whole song

862 views 1 this week
2 commentsread comments
1 2 3 4 5
2 more votes to show rating
add to favorites
×
Save as Personal and add changes to this tab that will be seen only by you. Learn more ›
×
You can save this tab as Personal to edit and correct it or add notes. All changes will be seen only by you. Learn more »
launch autoscroll
font size
0
reset
how to read this tab
guitar tuner
edit
Autoscroll
slow
fast
+/-
esc
set tempo
stop
Author
Difficulty
-------------------------------------------------------------------------------
                             Morning Light - Smile Empty Soul
-------------------------------------------------------------------------------
Tabbed by: Kipp (aka Pontius)
Email: respectmyauthori_tah@yahoo.com

Tuning:
Intro and Verse (lyrics come in after the second time through this first part)
e|---------------------------------------------------------------------------|
B|---------------------------------------------------------------------------|
G|----3-----3-----3----3-----6----6----6----6--------------------------------|x4
D|--5--5--5-----3--3-3-----4--4-4--4-4--4-4----------------------------------|
A|-6-----6---6-1----1---1-2----2----2----2---2-------------------------------|
E|---------------------------------------------------------------------------|

e|---------------------------------------------------------------------------|
B|---------------------------------------------------------------------------|
G|----3-----3-----3----3-----6----6----6-------7-----------------------------|x2
D|--5--5--5-----3--3-3-----4--4-4--4-4--4----5--5----------------------------|
A|-6-----6---6-1----1---1-2----2----2----2/-3--------------------------------|
E|---------------------------------------------------------------------------|

Chorus Chords (I think the second chord's wrong)
e|---|---|---|---|---|
B|---|---|---|---|---|
G|-8-|-5-|-4-|-3-|-6-|
D|-8-|-5-|-4-|-3-|-6-|
A|-6-|-3-|-2-|-1-|-4-|
E|---|---|---|---|---|

You get to figure out your own strumming patterns until I've got some more time so have 
The change between the 3rd and 4th chord changes is in the middle of the pattern though.

| /  slide up
| \  slide down
| h  hammer-on
| p  pull-off
| ~  vibrato
| +  harmonic
| x  Mute note
===============================================================================

            
            
Suggest correction
Creating personal tab
Creating personal tab
You can edit any tab online and save it as your Personal.

You can edit, replace or remove any tab part or add personal notes – all changes will be seen only by you.

Personal tabs can be accessed anytime from any device, even offline.
Learn more »
Give kudos to tab author, rate the tab!
1 2 3 4 5
comments
print report bad tab
2 comments total.
-1 reply
Discouraged 10 Jan 09, 2007 10:44 AM

Not a bad tab. Its a start at least. Theres a major shortage of tabs for the new album on here. But anyway, correct me if Im wrong, but I've always thought that SES play in drop Db tuning. I know they aren't going to just limit themselves to one tuning, cause that would be stupid, but yeah, just a thought. This sounds ok, but its not perfect. Work on it though? Would be great to have a perfect version.

0 reply
Pontius 51 Jan 10, 2007 04:40 PM

Yeah, i forgot about the drop d. working on it next week actually. thanks for the comment.

guest
You may want to rate the tab now too:
select rating
Wanna post a correction for this tab? Suggest correction