Oops, an error
Loading. Please wait.

Nowhere Kids bass

version 1
version 1

Whole song

Interactive

649 views 1 this week
2 commentsread comments
1 2 3 4 5
2 more votes to show rating
add to favorites
×
Save as Personal and add changes to this tab that will be seen only by you. Learn more ›
×
You can save this tab as Personal to edit and correct it or add notes. All changes will be seen only by you. Learn more »
launch autoscroll
font size
0
reset
guitar tuner
edit
Autoscroll
slow
fast
+/-
esc
set tempo
stop
Band- Smile Empty Soul
Song- Nowhere Kids

STANDARD TUNING [G,D,A,E]

INTRO:

START AT 00:05

-------------------|
-------------------|
-------------------|
-\4-[LET RING]

------------------------------------------------|
------------------------------------------------|
------------66667777----------------------------|
44444-44-------------77777-77/2222222-----------|

---------------------------------------------|
---------------------------------------------|
------------66667777-------------------------|
44444-44-------------77777-77/22222----------|

VERSE:

--------------------------------|
--------------------------------|
--------------------------------|
44444-\77777-77/22-0-22---------|

CHORUS:

------------------------------------------------|
------------------------------------------------|
------------66667777----------------------------|
44444-44-------------77777-77/2222222-----------|

FILL THING:

---------------------|
---------------------|  X3
---------------------|
44444-\77776666

----------------------|
----------------------|
----------------------|
4444-7777-22222

BRIDGE:

-------|
-------|
-------|
4-7-0

PART II
--------------------11-9-------|
------------------9------9-----|
----------------7--------------|
00-00-44-44--------------------|

BOTH 00 AND (00) AND 44 AND (44) ARE PLAYED THE SECOND TIME THROUGH

DID BOTHER WITH OUTRO SAME AS FILL THING JUST DIFFERENT END NOTE

ORDER:
INTRO
VERSE X4
CHORUS X4
FILL THING X1
PAUSE
VERSE X2
CHORUS X4
BRIDGE X2 [ONLY PLAY PART II THE SECOND TIME]
PAUSE [HOLD ON 4]
CHORUS X4
OUTRO X1

            
            
Suggest correction
Creating personal tab
Creating personal tab
You can edit any tab online and save it as your Personal.

You can edit, replace or remove any tab part or add personal notes – all changes will be seen only by you.

Personal tabs can be accessed anytime from any device, even offline.
Learn more »
Give kudos to tab author, rate the tab!
1 2 3 4 5
comments
print report bad tab
2 comments total.
0 reply
IPxKiller 186 Oct 04, 2005 06:13 AM

Ryan doesnt hold 4 he hold 5 its like

-------------7-7-8-8-3-3
-5-7-7-7-7----------------5-5-

0 reply
jasonstatement 10 Mar 03, 2009 02:44 PM

Yeah but they play in Db, where as this tab is in d.

guest
You may want to rate the tab now too:
select rating
Wanna post a correction for this tab? Suggest correction