Oops, an error
Loading. Please wait.

One At A Time tab

61 views 1 this week
no commentswrite comment
1 2 3 4 5
3 more votes to show rating
add to favorites
×
Save as Personal and add changes to this tab that will be seen only by you. Learn more ›
×
You can save this tab as Personal to edit and correct it or add notes. All changes will be seen only by you. Learn more »
launch autoscroll
font size
0
reset
how to read this tab
guitar tuner
edit
Autoscroll
slow
fast
+/-
esc
set tempo
stop
----------------------------------------------
     ONE AT A TIME - By Smile Empty Soul
----------------------------------------------
Tabbed by: megummybear95
Tuning: Drop D + half step down 

[Intro 0:00 - 0:46]
Eb|---------------------------------------------------------------------------|
Bb|---------------------------------------------------------------------------|
Gb|---------------------------------------------------------------------------|  
Db|-10-10-10-10-x-x--9-9-9-9-x-x--9-9-x-x---7-7-7-7-x-x--5-5-5-5-x-x--5-5-x-x-|  4X
Ab|--0--0--0--0-x-x--0-0-0-0-x-x--0-0-x-x---0-0-0-0-x-x--0-0-0-0-x-x--0-0-x-x-|
Db|---------------------------------------------------------------------------|

Eb|---------------------------------------------------------------------------|
Bb|---------------------------------------------------------------------------|
Gb|-12-12-12-12-----------------------------9-9-9-9---------------------------|  
Db|-10-10-10-10-x-x--9-9-9-9-x-x--9-9-x-x---7-7-7-7-x-x--5-5-5-5-x-x--5-5-x-x-|  2X
Ab|--0--0--0--0-x-x--0-0-0-0-x-x--0-0-x-x---0-0-0-0-x-x--0-0-0-0-x-x--0-0-x-x-|
Db|---------------------------------------------------------------------------|

Eb|---------------------------------------------------------------------------------|
Bb|---------------------------------------------------------------------------------|
Gb|-12-12-12-12-x-x--12-12-12-12-x-x--12-12-x-x---9-9-9-9-x-x--7-7-7-7-x-x--7-7-x-x-|
Db|-10-10-10-10-x-x---9--9--9--9-x-x---9--9-x-x---7-7-7-7-x-x--5-5-5-5-x-x--5-5-x-x-|  2X
Ab|--0--0--0--0-x-x---0--0--0--0-x-x---0--0-x-x---0-0-0-0-x-x--0-0-0-0-x-x--0-0-x-x-|
Db|---------------------------------------------------------------------------------|

[Verse (2X) 0:46 - 1:32]  
Eb|--------------------------------------------------------------------|
Bb|--------------------------------------------------------------------|
Gb|--------------------------------------------------------------------|
Db|-10--10-10-10--10--10-10-10--10--10-10---9--9-9-9--9--9-9-9--9--9-9-|
Ab|--0---0--0--0---0---0--0--0---0---0--0---0--0-0-0--0--0-0-0--0--0-0-|
Db|--------------------------------------------------------------------|
                     “Shut down this fight....”
                     “Its burning pride...”

Eb|--------------------------------------------------------------------|
Bb|--------------------------------------------------------------------|
Gb|--------------------------------------------------------------------|
Db|-10--10-10-10--10--10-10-10--10--10-10---9--9-9-9--9--9-9-9--9--9-9-|
Ab|--0---0--0--0---0---0--0--0---0---0--0---0--0-0-0--0--0-0-0--0--0-0-|
Db|--------------------------------------------------------------------|
                     “It’s over with....”
                     “It weighs on...”

Eb|-------------------------------------------------------------------------------|
Bb|-------------------------------------------------------------------------------|
Gb|-------------------------------------------------------------------------------|
Db|-10--10-10-10--10--10-10-10--10--10-10---12--12-12-12--12--12-12-12--12--12-12-|
Ab|-10--10-10-10--10--10-10-10--10--10-10---12--12-12-12--12--12-12-12--12--12-12-|
Db|-10--10-10-10--10--10-10-10--10--10-10---12--12-12-12--12--12-12-12--12--12-12-|
                     “Just try and.....”
    “But I’ve been...”

Eb|---------------------------------------------------------------------------------|
Bb|---------------------------------------------------------------------------------|
Gb|-12-12-12-12-x-x--12-12-12-12-x-x--12-12-x-x---9-9-9-9-x-x--7-7-7-7-x-x--7-7-x-x-|
Db|-10-10-10-10-x-x---9--9--9--9-x-x---9--9-x-x---7-7-7-7-x-x--5-5-5-5-x-x--5-5-x-x-|  
Ab|--0--0--0--0-x-x---0--0--0--0-x-x---0--0-x-x---0-0-0-0-x-x--0-0-0-0-x-x--0-0-x-x-|
Db|---------------------------------------------------------------------------------|

[Chorus](2X) (Guitar 1)  1:32 - 1:56
Eb|-----------------------------------------------------------------|
Bb|-----------------------------------------------------------------|
Gb|-----------------------------------------------------------------|
Db|---------0--0-x-x--0--0-x-x--0--0-x---3--3-x-x--3--3-x-x--3--3-x-|
Ab|---------0--0-x-x--0--0-x-x--0--0-x---3--3-x-x--3--3-x-x--3--3-x-|
Db|-(x\\\\)-0--0-x-x--0--0-x-x--0--0-x---3--3-x-x--3--3-x-x--3--3-x-|
 (pick scrape)
           “Sorry doesn’t make...”
           “Been left for dead...”

Eb|-----------------------------------------------------------------------|
Bb|-----------------------------------------------------------------------|
Gb|-----------------------------------------------------------------------|
Db|-5/7-7-7-x-x--7-7-7-7-x-x--7-7-x-x---7-7-7-7-x-x--7-7-7-7-x-x--7-7-x-x-|
Ab|-5/7-7-7-x-x--7-7-7-7-x-x--7-7-x-x---7-7-7-7-x-x--7-7-7-7-x-x--7-7-x-x-|
Db|-5/7-7-7-x-x--7-7-7-7-x-x--7-7-x-x---7-7-7-7-x-x--7-7-7-7-x-x--7-7-x-x-|

[Chorus](2X) (Guitar 2)  
Eb|------------------------------------------------------------------|
Bb|------------------------------------------------------------------|
Gb|--------10----9----10--9----5-------------------------------------|
Db|------------------------------------------------------------------|
Ab|------------------------------------------------------------------|
Db|------------------------------------------------------------------|
          “Sorry doesn’t make...”
          “Been left for dead...”

Eb|------------------------------------------------------------------------------------|
Bb|------------------------------------------------------------------------------------|
Gb|-12-12-12-12-x-x--12-12-12-12-x-x--12/14-14-14---14\7-7-7-x-x--7/9-9-9-x-x--9-9-x-x-|
Db|-10-10-10-10-x-x---9--9--9--9-x-x---9/12-12-12---12\5-5-5-x-x--5/7-7-7-x-x--7-7-x-x-|  
Ab|--0--0--0--0-x-x---0--0--0--0-x-x---0/-0--0--0----0\0-0-0-x-x--0/0-0-0-x-x--0-0-x-x-|
Db|------------------------------------------------------------------------------------|

[Guitar 1][1:56 - 2:02]
Eb|---------------------------------------------------------|
Bb|---------------------------------------------------------|
Gb|---------------------------------------------------------|
Db|-0--0-x-x--0--0-x-x--0--0-x---3--3-x-x--3--3-x-x--3--3-x-|
Ab|-0--0-x-x--0--0-x-x--0--0-x---3--3-x-x--3--3-x-x--3--3-x-|
Db|-0--0-x-x--0--0-x-x--0--0-x---3--3-x-x--3--3-x-x--3--3-x-|
   “Listen....”

[Guitar 2]
Eb|---------------------------------------------------------|
Bb|---------------------------------------------------------|
Gb|-10----9----10--9----5-----------------------------------|
Db|-------------------------------7-------------------------|
Ab|---------------------------------------------------------|
Db|---------------------------------------------------------|
   “Listen....”

[Verse 2:02 - 2:30]
Eb|---------------------------------------------------------------------------------|
Bb|---------------------------------------------------------------------------------|
Gb|-12-12-12-12-x-x--12-12-12-12-x-x--12-12-x-x---9-9-9-9-x-x--7-7-7-7-x-x--7-7-x-x-|
Db|-10-10-10-10-x-x---9--9--9--9-x-x---9--9-x-x---7-7-7-7-x-x--5-5-5-5-x-x--5-5-x-x-|  
Ab|--0--0--0--0-x-x---0--0--0--0-x-x---0--0-x-x---0-0-0-0-x-x--0-0-0-0-x-x--0-0-x-x-|
Db|---------------------------------------------------------------------------------|

Eb|--------------------------------------------------------------------|
Bb|--------------------------------------------------------------------|
Gb|--------------------------------------------------------------------|
Db|-10--10-10-10--10--10-10-10--10--10-10---9--9-9-9--9--9-9-9--9--9-9-|
Ab|--0---0--0--0---0---0--0--0---0---0--0---0--0-0-0--0--0-0-0--0--0-0-|
Db|--------------------------------------------------------------------|
                     “Sing out your....”
                     
Eb|--------------------------------------------------------------------|
Bb|--------------------------------------------------------------------|
Gb|--------------------------------------------------------------------|
Db|-10--10-10-10--10--10-10-10--10--10-10---9--9-9-9--9--9-9-9--9--9-9-|
Ab|--0---0--0--0---0---0--0--0---0---0--0---0--0-0-0--0--0-0-0--0--0-0-|
Db|--------------------------------------------------------------------|
                     “To all the angels....”

Eb|-------------------------------------------------------------------------------|
Bb|-------------------------------------------------------------------------------|
Gb|-------------------------------------------------------------------------------|
Db|-10--10-10-10--10--10-10-10--10--10-10---12--12-12-12--12--12-12-12--12--12-12-|
Ab|-10--10-10-10--10--10-10-10--10--10-10---12--12-12-12--12--12-12-12--12--12-12-|
Db|-10--10-10-10--10--10-10-10--10--10-10---12--12-12-12--12--12-12-12--12--12-12-|
   “I’ve been afraid...”

Eb|---------------------------------------------------------------------------------|
Bb|---------------------------------------------------------------------------------|
Gb|-12-12-12-12-x-x--12-12-12-12-x-x--12-12-x-x---9-9-9-9-x-x--7-7-7-7-x-x--7-7-x-x-|
Db|-10-10-10-10-x-x---9--9--9--9-x-x---9--9-x-x---7-7-7-7-x-x--5-5-5-5-x-x--5-5-x-x-|  
Ab|--0--0--0--0-x-x---0--0--0--0-x-x---0--0-x-x---0-0-0-0-x-x--0-0-0-0-x-x--0-0-x-x-|
Db|---------------------------------------------------------------------------------|

[Chorus](3X) (Guitar 1)  2:30 - 3:05
Eb|-----------------------------------------------------------------|
Bb|-----------------------------------------------------------------|
Gb|-----------------------------------------------------------------|
Db|---------0--0-x-x--0--0-x-x--0--0-x---3--3-x-x--3--3-x-x--3--3-x-|
Ab|---------0--0-x-x--0--0-x-x--0--0-x---3--3-x-x--3--3-x-x--3--3-x-|
Db|-(x\\\\)-0--0-x-x--0--0-x-x--0--0-x---3--3-x-x--3--3-x-x--3--3-x-|
 (pick scrape)
           “Sorry doesn’t make...”
           “Been left for dead...”
           “We came to die...”

Eb|-----------------------------------------------------------------------|
Bb|-----------------------------------------------------------------------|
Gb|-----------------------------------------------------------------------|
Db|-5/7-7-7-x-x--7-7-7-7-x-x--7-7-x-x---7-7-7-7-x-x--7-7-7-7-x-x--7-7-x-x-|
Ab|-5/7-7-7-x-x--7-7-7-7-x-x--7-7-x-x---7-7-7-7-x-x--7-7-7-7-x-x--7-7-x-x-|
Db|-5/7-7-7-x-x--7-7-7-7-x-x--7-7-x-x---7-7-7-7-x-x--7-7-7-7-x-x--7-7-x-x-|

[Chorus](3X) (Guitar 2)
Eb|------------------------------------------------------------------|
Bb|------------------------------------------------------------------|
Gb|--------10----9----10--9----5-------------------------------------|
Db|------------------------------------------------------------------|
Ab|------------------------------------------------------------------|
Db|------------------------------------------------------------------|
          “Sorry doesn’t make...”
          “Been left for dead...”
          “We came to die...”

Eb|------------------------------------------------------------------------------------|
Bb|------------------------------------------------------------------------------------|
Gb|-12-12-12-12-x-x--12-12-12-12-x-x--12/14-14-14---14\7-7-7-x-x--7/9-9-9-x-x--9-9-x-x-|
Db|-10-10-10-10-x-x---9--9--9--9-x-x---9/12-12-12---12\5-5-5-x-x--5/7-7-7-x-x--7-7-x-x-|  
Ab|--0--0--0--0-x-x---0--0--0--0-x-x---0/-0--0--0----0\0-0-0-x-x--0/0-0-0-x-x--0-0-x-x-|
Db|------------------------------------------------------------------------------------|

[Guitar 1]3:05 - 3:11
Eb|---------------------------------------------------------|
Bb|---------------------------------------------------------|
Gb|---------------------------------------------------------|
Db|-0--0-x-x--0--0-x-x--0--0-x---3--3-x-x--3--3-x-x--3--3-x-|
Ab|-0--0-x-x--0--0-x-x--0--0-x---3--3-x-x--3--3-x-x--3--3-x-|
Db|-0--0-x-x--0--0-x-x--0--0-x---3--3-x-x--3--3-x-x--3--3-x-|
   “Listen....”

[Guitar 2]
Eb|---------------------------------------------------------|
Bb|---------------------------------------------------------|
Gb|-10----9----10--9----5-----------------------------------|
Db|-------------------------------7-------------------------|
Ab|---------------------------------------------------------|
Db|---------------------------------------------------------|
   “Listen....”

[Outro  3:11 - 3:46]
Eb|---------------------------------------------------------------------------------------|
Bb|---------------------------------------------------------------------------------------|
Gb|-------------------------------------------/12-12--12-x--10-x--11---11-11-11-11--11-11-|
Db|-9/10-10-10--10--9-9-9-9--9--9/12-12-12--12/14-14--14-x--12-x--10---10-10-10-10--10-10-|  2X
Ab|-0--0--0--0---0--0-0-0-0--0--0-----0--0---0--0--0---0-x---0-x---0----0--0--0--0---0--0-|
Db|---------------------------------------------------------------------------------------|

Eb|--8---8-x--8--8---8-x--8--8---8--8--7--7-x-7-7--7-x-7-7--7-7-|
Bb|-10--10-x-10-10--10-x-10-10--10-10--8--8-x-8-8--8-x-8-8--8-8-|
Gb|-------------------------------------------------------------|
Db|-------------------------------------------------------------|  
Ab|-------------------------------------------------------------|
Db|-------------------------------------------------------------|

Eb|-5--5-x-5-5--5-x-5-5--5-5--1--3-5-3--3/10--8--8--8-|
Bb|-6--6-x-6-6--6-x-6-6--6-6--3--5-6-5--5/12-10-10-10-|
Gb|---------------------------------------------------|
Db|---------------------------------------------------|  
Ab|---------------------------------------------------|
Db|---------------------------------------------------|

Eb|--8---8-x--8--8---8-x--8--8---8--8--7--7-x-7-7-/10-x-10-10--10-10-|
Bb|-10--10-x-10-10--10-x-10-10--10-10--8--8-x-8-8-/12-x-12-12--12-12-|
Gb|------------------------------------------------------------------|
Db|------------------------------------------------------------------|  
Ab|------------------------------------------------------------------|
Db|------------------------------------------------------------------|

Eb|-10--10-x-12--8---8-x--8--8---8--8--1--3-7-3--3/10--8--8--8-|
Bb|-12--12-x-12-10--10-x-10-10--10-10--3--5-8-5--5/12-10-10-10-|
Gb|------------------------------------------------------------|
Db|------------------------------------------------------------|  
Ab|------------------------------------------------------------|
Db|------------------------------------------------------------|

[Guitar 1]3:46 - 4:09
Eb|-----------------------------------------------------------------------|
Bb|-----------------------------------------------------------------------|
Gb|-----------------------------------------------------------------------|
Db|-5/7-7-7-x-x--7-7-7-7-x-x--7-7-x-x---3-3-3-3-x-x--5-5-5-5-x-x--5-5-x-x-|  3X
Ab|-5/7-7-7-x-x--7-7-7-7-x-x--7-7-x-x---3-3-3-3-x-x--5-5-5-5-x-x--5-5-x-x-|
Db|-5/7-7-7-x-x--7-7-7-7-x-x--7-7-x-x---3-3-3-3-x-x--5-5-5-5-x-x--5-5-x-x-|
                                                            “One at a time...”

Eb|-----------------------------------------------------------------------|
Bb|-----------------------------------------------------------------------|
Gb|-----------------------------------------------------------------------|
Db|-5/7-7-7-x-x--7-7-7-7-x-x--7-7-x-x---3-3-3-3-x-x--5-5-5-5-x-x---(x////)|  
Ab|-5/7-7-7-x-x--7-7-7-7-x-x--7-7-x-x---3-3-3-3-x-x--5-5-5-5-x-x---(x////)|
Db|-5/7-7-7-x-x--7-7-7-7-x-x--7-7-x-x---3-3-3-3-x-x--5-5-5-5-x-x---(x////)|
                                                                  (pick scrape)

[Guitar 2]
Eb|-----------------------------------------------------------------------------------|
Bb|-----------------------------------------------------------------------------------|
Gb|-7/-9--9--9-x-x---9--9--9--9-x-x---9--9-x-x---9--9--9--9-x-x--7-7-7-7-x-x--7-7-x-x-|
Db|-9/10-10-10-x-x--10-10-10-10-x-x--10-10-x-x--10-10-10-10-x-x--9-9-9-9-x-x--9-9-x-x-|  3X
Ab|-----------------------------------------------------------------------------------|
Db|-----------------------------------------------------------------------------------|
                                                                       “One at a time...”

Eb|-----------------------------------------------------------------------------------|
Bb|-----------------------------------------------------------------------------------|
Gb|-7/-9--9--9-x-x---9--9--9--9-x-x---9--9-x-x---9--9--9--9-x-x--7-7-7-7-x-x----------|
Db|-9/10-10-10-x-x--10-10-10-10-x-x--10-10-x-x--10-10-10-10-x-x--9-9-9-9-x-x----------|  
Ab|-----------------------------------------------------------------------------------|
Db|-----------------------------------------------------------------------------------|

[Guitar 3]last 2x only
Eb|--7--7--7--7-x-x---8--8--8--8-x-x---8--8-x-x--12-12-12-12-x-x--10-10-10-10-x-x--10-10-x-x-|
Bb|-10-10-10-10-x-x--10-10-10-10-x-x--10-10-x-x--13-13-13-13-x-x--12-12-12-12-x-x--12-12-x-x-|
Gb|------------------------------------------------------------------------------------------|
Db|------------------------------------------------------------------------------------------|
Ab|------------------------------------------------------------------------------------------|
Db|------------------------------------------------------------------------------------------|
                                                                            “One at a time...”

Eb|--7--7--7--7-x-x---8--8--8--8-x-x---8--8-x-x--12-12-12-12-x-x--10-10-10-10-x-x------------|
Bb|-10-10-10-10-x-x--10-10-10-10-x-x--10-10-x-x--13-13-13-13-x-x--12-12-12-12-x-x------------|
Gb|------------------------------------------------------------------------------------------|
Db|------------------------------------------------------------------------------------------|
Ab|------------------------------------------------------------------------------------------|
Db|------------------------------------------------------------------------------------------|

[Chorus](2X) (Guitar 1)  4:09 - 4:32
Eb|---------------------------------------------------------|
Bb|---------------------------------------------------------|
Gb|---------------------------------------------------------|
Db|-0--0-x-x--0--0-x-x--0--0-x---3--3-x-x--3--3-x-x--3--3-x-|
Ab|-0--0-x-x--0--0-x-x--0--0-x---3--3-x-x--3--3-x-x--3--3-x-|
Db|-0--0-x-x--0--0-x-x--0--0-x---3--3-x-x--3--3-x-x--3--3-x-|
   “Sorry doesn’t make...”
   “Been left for dead...”

Eb|-----------------------------------------------------------------------|
Bb|-----------------------------------------------------------------------|
Gb|-----------------------------------------------------------------------|
Db|-5/7-7-7-x-x--7-7-7-7-x-x--7-7-x-x---7-7-7-7-x-x--7-7-7-7-x-x--7-7-x-x-|
Ab|-5/7-7-7-x-x--7-7-7-7-x-x--7-7-x-x---7-7-7-7-x-x--7-7-7-7-x-x--7-7-x-x-|
Db|-5/7-7-7-x-x--7-7-7-7-x-x--7-7-x-x---7-7-7-7-x-x--7-7-7-7-x-x--7-7-x-x-|

[Chorus](2X) (Guitar 2)
Eb|----------------------------------------------------------|
Bb|----------------------------------------------------------|
Gb|-10----9----10--9----5------------------------------------|
Db|----------------------------------------------------------|
Ab|----------------------------------------------------------|
Db|----------------------------------------------------------|
   “Sorry doesn’t make...”
   “Been left for dead...”

Eb|------------------------------------------------------------------------------------|
Bb|------------------------------------------------------------------------------------|
Gb|-12-12-12-12-x-x--12-12-12-12-x-x--12/14-14-14---14\7-7-7-x-x--7/9-9-9-x-x--9-9-x-x-|
Db|-10-10-10-10-x-x---9--9--9--9-x-x---9/12-12-12---12\5-5-5-x-x--5/7-7-7-x-x--7-7-x-x-|  
Ab|--0--0--0--0-x-x---0--0--0--0-x-x---0/-0--0--0----0\0-0-0-x-x--0/0-0-0-x-x--0-0-x-x-|
Db|------------------------------------------------------------------------------------|

[Guitar 1]4:32 - 4:43
Eb|---------------------------------------------------------|
Bb|---------------------------------------------------------|
Gb|---------------------------------------------------------|
Db|-0--0-x-x--0--0-x-x--0--0-x---3--3-x-x--3--3-x-x--3--3-x-|
Ab|-0--0-x-x--0--0-x-x--0--0-x---3--3-x-x--3--3-x-x--3--3-x-|
Db|-0--0-x-x--0--0-x-x--0--0-x---3--3-x-x--3--3-x-x--3--3-x-|
   “We came to die...”

Eb|-----------------------------------------------------------------------|
Bb|-----------------------------------------------------------------------|
Gb|-----------------------------------------------------------------------|
Db|-5/7-7-7-x-x--7-7-7-7-x-x--7-7-x-x---7-7-7-7-x-x--7-7-7-7-x-x--7-7-x-x-|
Ab|-5/7-7-7-x-x--7-7-7-7-x-x--7-7-x-x---7-7-7-7-x-x--7-7-7-7-x-x--7-7-x-x-|
Db|-5/7-7-7-x-x--7-7-7-7-x-x--7-7-x-x---7-7-7-7-x-x--7-7-7-7-x-x--7-7-x-x-|
              “Death is a lie...”

[Guitar 2]
Eb|----------------------------------------------------------|
Bb|----------------------------------------------------------|
Gb|-10----9----10--9----5------------------------------------|
Db|----------------------------------------------------------|
Ab|----------------------------------------------------------|
Db|----------------------------------------------------------|
   “We came to die...”

Eb|-------------------------------------------------------------------------------------------|
Bb|-------------------------------------------------------------------------------------------|
Gb|-12-12-12-12-x-x--12-12-12-12-x-x--12-12-x-x---12-12-12-12-x-x--12-12-12-12-x-x--12-12-x-x-|
Db|-10-10-10-10-x-x--10-10-10-10-x-x--10-10-x-x----9--9--9--9-x-x--10-10-10-10-x-x--10-10-x-x-|  
Ab|--0--0--0--0-x-x---0--0--0--0-x-x---0--0-x-x----0--0--0--0-x-x---0--0--0--0-x-x---0--0-x-x-|
Db|-------------------------------------------------------------------------------------------|
                 “Death is a lie...”

[Guitar 1] 4:43 - 4:49
Eb|---------------------------------------------------------|
Bb|---------------------------------------------------------|
Gb|---------------------------------------------------------|
Db|-0--0-x-x--0--0-x-x--0--0-x---3--3-x-x--3--3-x-x--3--3-x-|
Ab|-0--0-x-x--0--0-x-x--0--0-x---3--3-x-x--3--3-x-x--3--3-x-|
Db|-0--0-x-x--0--0-x-x--0--0-x---3--3-x-x--3--3-x-x--3--3-x-|
   “Listen....”

[Guitar 2]
Eb|---------------------------------------------------------|
Bb|---------------------------------------------------------|
Gb|-10----9----10--9----5-----------------------------------|
Db|-------------------------------7-------------------------|
Ab|---------------------------------------------------------|
Db|---------------------------------------------------------|
   “Listen....”

[Solo  4:49 - 5:12]
Eb|-5-5-5-8-8-8-7-7-7-----------------------------------------------|
Bb|-------------------5-5-5-5-5-5-5-------6-6-6-------5-5-5---------|
Gb|---------------------------------7-7-7-------5-5-5-------4b5b4---|
Db|-----------------------------------------------------------------|  2X
Ab|-----------------------------------------------------------------|
Db|-----------------------------------------------------------------|

Eb|-----------------------------------------------------------------|
Bb|---------------------------------------6-6-6-5-5-5-------8-8-6-6-|
Gb|-------5-5-5-4-4-4-7-7-7-7-7-7-7-------------------5-5-5---------|
Db|-7-7-7---------------------------5-5-5---------------------------|
Ab|-----------------------------------------------------------------|
Db|-----------------------------------------------------------------|

Eb|-----------------------------------------------------------------|
Bb|-----------------------------------------------------------------|
Gb|-------5-5-5-4-4-4-----------------------------------------------|
Db|-7-7-7---------------------------------3-3-3-------2-2-2---------|
Ab|-------------------7-7-7-7-7-7-7-5-5-5-------3-3-3-------2b3b2---|
Db|-----------------------------------------------------------------|

[Outro](Guitar 1)  5:12 - 5:35]
Eb|-----------------------------------------------------------------------|
Bb|-----------------------------------------------------------------------|
Gb|-----------------------------------------------------------------------|
Db|-5/7-7-7-x-x--7-7-7-7-x-x--7-7-x-x---3-3-3-3-x-x--5-5-5-5-x-x--5-5-x-x-|  3X
Ab|-5/7-7-7-x-x--7-7-7-7-x-x--7-7-x-x---3-3-3-3-x-x--5-5-5-5-x-x--5-5-x-x-|
Db|-5/7-7-7-x-x--7-7-7-7-x-x--7-7-x-x---3-3-3-3-x-x--5-5-5-5-x-x--5-5-x-x-|
                                                            “One at a time...”

Eb|-----------------------------------------------------------------------|
Bb|-----------------------------------------------------------------------|
Gb|-----------------------------------------------------------------------|
Db|-5/7-7-7-x-x--7-7-7-7-x-x--7-7-x-x---3-3-3-3-x-x--5-5-5-5-x-x----------|  
Ab|-5/7-7-7-x-x--7-7-7-7-x-x--7-7-x-x---3-3-3-3-x-x--5-5-5-5-x-x----------|
Db|-5/7-7-7-x-x--7-7-7-7-x-x--7-7-x-x---3-3-3-3-x-x--5-5-5-5-x-x----------|
 
[Guitar 2]
Eb|-----------------------------------------------------------------------------------|
Bb|-----------------------------------------------------------------------------------|
Gb|-7/-9--9--9-x-x---9--9--9--9-x-x---9--9-x-x---9--9--9--9-x-x--7-7-7-7-x-x--7-7-x-x-|
Db|-9/10-10-10-x-x--10-10-10-10-x-x--10-10-x-x--10-10-10-10-x-x--9-9-9-9-x-x--9-9-x-x-|  3X
Ab|-----------------------------------------------------------------------------------|
Db|-----------------------------------------------------------------------------------|
                                                                       “One at a time...”

Eb|-----------------------------------------------------------------------------------|
Bb|-----------------------------------------------------------------------------------|
Gb|-7/-9--9--9-x-x---9--9--9--9-x-x---9--9-x-x---9--9--9--9-x-x--7-7-7-7-x-x----------|
Db|-9/10-10-10-x-x--10-10-10-10-x-x--10-10-x-x--10-10-10-10-x-x--9-9-9-9-x-x----------|  
Ab|-----------------------------------------------------------------------------------|
Db|-----------------------------------------------------------------------------------|

[Guitar 3]last 2x only 
Eb|--7--7--7--7-x-x---8--8--8--8-x-x---8--8-x-x--12-12-12-12-x-x--10-10-10-10-x-x--10-10-x-x-|
Bb|-10-10-10-10-x-x--10-10-10-10-x-x--10-10-x-x--13-13-13-13-x-x--12-12-12-12-x-x--12-12-x-x-|
Gb|------------------------------------------------------------------------------------------|
Db|------------------------------------------------------------------------------------------|
Ab|------------------------------------------------------------------------------------------|
Db|------------------------------------------------------------------------------------------|
                                                                            “One at a time...”

Eb|--7--7--7--7-x-x---8--8--8--8-x-x---8--8-x-x--12-12-12-12-x-x--10-10-10-10-x-x------------|
Bb|-10-10-10-10-x-x--10-10-10-10-x-x--10-10-x-x--13-13-13-13-x-x--12-12-12-12-x-x------------|
Gb|------------------------------------------------------------------------------------------|
Db|------------------------------------------------------------------------------------------|
Ab|------------------------------------------------------------------------------------------|
Db|------------------------------------------------------------------------------------------|

[Outro  5:35 - 5:55]
Eb|-------------------------------------------------------------------------------------------------|
Bb|-12-12-12-12-12-12-13-13-13-13-13-13-13-13-13-13-12-12-12-15-15-15-13-13-13-13-13-13-13-13-13-13-|
Gb|-------------------------------------------------------------------------------------------------| 
Db|-------------------------------------------------------------------------------------------------|  2X
Ab|-------------------------------------------------------------------------------------------------|
Db|-------------------------------------------------------------------------------------------------|

Eb|-------------|
Bb|-12~~~~~~~~~-|
Gb|-------------|
Db|-------------|
Ab|-------------|
Db|-------------|

************************************

| b  Bend
| x  Dead note
| /  Slide up
| \  Slide down
| ~  Vibrato

************************************

            
            
Suggest correction
Creating personal tab
Creating personal tab
You can edit any tab online and save it as your Personal.

You can edit, replace or remove any tab part or add personal notes – all changes will be seen only by you.

Personal tabs can be accessed anytime from any device, even offline.
Learn more »
Give kudos to tab author, rate the tab!
1 2 3 4 5
comments
print report bad tab
guest
You may want to rate the tab now too:
select rating
Wanna post a correction for this tab? Suggest correction