Oops, an error
Loading. Please wait.

The Breaks tab

135 views 1 this week
3 commentsread comments
1 2 3 4 5
x 3
add to favorites
×
Save as Personal and add changes to this tab that will be seen only by you. Learn more ›
×
You can save this tab as Personal to edit and correct it or add notes. All changes will be seen only by you. Learn more »
launch autoscroll
font size
0
reset
how to read this tab
guitar tuner
edit
Autoscroll
slow
fast
+/-
esc
set tempo
stop
Tuning: half step down
Chords
Em:    022000
C:     x32010
G:     320003
G alt: 3x0013

Em              C               G     G alt G
 There ain't no hiding from the rain,
Em       C             G     G alt G
 Wash it all to start again,
Em           C                   G    G alt G
 I seen them all they're all the same,
Em           C                 G    G alt G
 It makes no difference in the end,

          Em          C         G   
So I just break down, blackout, Crawl into the gutter let one become another, 
        Em      C         G
just to take my trash out now.

Em          C            G         G alt G
 Teeth keep grinding out mistakes
Em          C              G     G alt G
 The harder road is what I take
Em           C                   G     G alt G
 I seen them all they're all the same
Em         C                G     G alt G
 Find more questions in the pain

          Em          C         G   
So I just break down, blackout, Crawl into the gutter let one become another, 
        Em      C         G
just to take my trash out now.
           Em         C          G
And I just breakdown, black out. Closing up the shutters , let one become another. 
       Em      C            G
Will I make it through some how?

Bridge 
D#|----------------|----------------|----------------|----------------|
A#|----------------|----------------|----------------|----------------|
F#|------0---------|------0---------|------0---------|-------0--------|
C#|--2-------2---2-|--2-------2---2-|--0-------0---0-|--0-------0---0-|
G#|----------------|3---3---3---3---|----------------|----------------|
D#|0---0---0---0---|----------------|3---3---3---3---|3---3---3---3---|

single downstroke
          Em          C         G   
So I just break down, blackout, Crawl into the gutter let one become another, 
        Em      C         G
just to take my trash out now.

strumming
           Em         C          G
And I just breakdown, black out. Closing up the shutters , let one become another. 
       Em      C            G
Will I make it through some how?

            
            
Suggest correction
Creating personal tab
Creating personal tab
You can edit any tab online and save it as your Personal.

You can edit, replace or remove any tab part or add personal notes – all changes will be seen only by you.

Personal tabs can be accessed anytime from any device, even offline.
Learn more »
Give kudos to tab author, rate the tab!
1 2 3 4 5
comments
print report bad tab
3 comments total.
0 reply
jasperik 949 Nov 05, 2013 07:29 AM

small correction from myself in the bridge

Em C G
D#|----------------|----------------|----------------|----------------|
A#|----------------|------0---------|----------------|----------------|
F#|------0---------|------0---------|------0---------|-------0--------|
C#|--2-------2---2-|--2-------2---2-|--0-------0---0-|--0-------0---0-|
G#|----------------|3---3---3---3---|----------------|----------------|
D#|0---0---0---0---|----------------|3---3---3---3---|3---3---3---3---|

0 reply
jasperik 949 Nov 05, 2013 07:30 AM

small correction from myself in the bridge

Em C G
D#|----------------|----------------|----------------|----------------|
A#|----------------|----------------|----------------|----------------|
F#|------0---------|------0---------|------0---------|-------0--------|
C#|--2-------2---2-|--2-------2---2-|--0-------0---0-|--0-------0---0-|
G#|----------------|3---3---3---3---|----------------|----------------|
D#|0---0---0---0---|----------------|3---3---3---3---|3---3---3---3---|

0 reply
schulpen_nick 10 Nov 06, 2015 08:56 AM

Great tab! I play it for myself:
Em C G G alt G
There ain't no hiding from the rain,
Em C G
Wash it all to start again,
Em C G G alt G
I seen them all they're all the same,
Em C G
It makes no difference in the end,

This for the whole song, the chorus included.
If I'm not mistaken, Sean plays it this way.

guest
You may want to rate the tab now too:
select rating
Wanna post a correction for this tab? Suggest correction