Oops, an error
Loading. Please wait.

Therapy bass

version 1
version 1

Whole song

Interactive

216 views 1 this week
2 commentsread comments
1 2 3 4 5
1 last vote to show rating
add to favorites
×
Save as Personal and add changes to this tab that will be seen only by you. Learn more ›
×
You can save this tab as Personal to edit and correct it or add notes. All changes will be seen only by you. Learn more »
launch autoscroll
font size
0
reset
guitar tuner
edit
Autoscroll
slow
fast
+/-
esc
set tempo
stop
Therapy
chorus
F# |---------------------------------------------------------|
C# |---------------------------------------------------------|
G# |-------55----------55------------------------------------|
C# |-00-55----55-00-55----55-8-8-8-8-8-8/-10-10-10-10-10-10--|

Verse
F# |-----------------------------------|
C# |-----------------------------------|
G# |------------1----------------------|* he might play this or he might not
C# |-5~--5/1~-1*--0--------------------|

Bridge part 1
F# |----------------------------------------------|
C# |----------------------------------------------|
G# |----------------------------------------------|
C# |-55-xx-555-xx-55------------------------------|

Bridge part 2
F# |----------------------------------------------|
C# |----------------------------------------------|
G# |----------------------------------------------|
C# |-55-55-5-55-55--5-----------------------------|

Verse x2 (come in at 36 seconds)
Chorus x 4
Verse x 4
Chorus x 4
Bridge part 1 x 2
Bridge part 2 x 2
Chorus x 4
Bridge part 1 x 2

            
            
Suggest correction
Creating personal tab
Creating personal tab
You can edit any tab online and save it as your Personal.

You can edit, replace or remove any tab part or add personal notes – all changes will be seen only by you.

Personal tabs can be accessed anytime from any device, even offline.
Learn more »
Give kudos to tab author, rate the tab!
1 2 3 4 5
comments
print report bad tab
2 comments total.
0 reply
musicphreak13 50 Aug 26, 2004 08:00 PM

are you sure that the a d and g strings need to be tuned down half a step? because the losest you play on a is a 1 so you could just play 0 if it wasnt half a step down....cuz when i tabbed this song i just did it in drop d flat and didnt do anything to the other strings....

0 reply
musicphreak13 50 Sep 05, 2004 08:00 PM

and thats nothing like my tab...which was rejected
-------------
-------------
-4-4-7-7-9-9-
4-4-5-5-7-7--

guest
Wanna post a correction for this tab? Suggest correction