Oops, an error
Loading. Please wait.

This Is War tab

version 1
version 1

Whole song

7,482 views 3 this week
11 commentsread comments
1 2 3 4 5
x 4
add to favorites
×
Save as Personal and add changes to this tab that will be seen only by you. Learn more ›
×
You can save this tab as Personal to edit and correct it or add notes. All changes will be seen only by you. Learn more »
launch autoscroll
font size
0
reset
how to read this tab
guitar tuner
edit
Autoscroll
slow
fast
+/-
esc
set tempo
stop
-------------------------------------------------------------------------------
                             THIS IS WAR - Smile Empty Soul
-------------------------------------------------------------------------------
Tabbed by:   Guitarsuperman
Email:   Rubyrobert23@aol.com

Tuning: Drop D

verse: (both guitars)
e|-----------------------------------------------------------------------------|
b|-----------------------------------------------------------------------------|
g|-----------------------------------------------------------------------------|
d|--6-6-6-6-6-6-6-6-6-6-6-6--8-8-8-8-8-8-8-8--8-8-8-8--8-8-8-8-----------------|
a|--6-6-6-6-6-6-6-6-8-8-8-8--9-9-9-9-9-9-9-9--8-8-8-8--9-9-9-9-----------------|
d|--6-6-6-6-6-6-6-6-6-6-6-6--8-8-8-8-8-8-8-8--8-8-8-8--8-8-8-8-----------------|

e|---------------------------------------------|
b|---------------------------------------------|
g|---------------------------------------------|
d|--9-9-9-9-9-9-9-9-9--9---9---9---9-----------|
a|--9-9-9-9-9-9-9-9-9--11-11-11--11------------|
d|--9-9-9-9-9-9-9-9-9--9---9---9---9-----------|

e|-------------------------------------------------------------------------------|
b|-------------------------------------------------------------------------------|
g|-------------------------------------------------------------------------------|
d|--9-9-9-9-8-8-8-8-8-8-8-8-8-8-8-8-8-8------------------------------------------|
a|--9-9-9-9-8-8-9-9-8-8-8-8-8-8-8-8-8-8------------------------------------------|
d|--9-9-9-9-8-8-8-8-8-8-8-8-8-8-8-8-8-8------------------------------------------|


Chorus: guitar1
e|--------2-------2--------2-------2-----------------------------------------------|
b|-----2---2---2---2---2---2---2---2------1---------1---------2--------2-----------|
g|--3--------3-----------------------------3---3----3---3----4----4---4---4--------|
d|---------------------3-------3--------3---------3--------4---------4-------------|
A|---------------------------------------------------------------------------------|
d|---------------------------------------------------------------------------------|repeat

Chorus: guitar2

e|--------------------------------------------------------------------------------------|
b|--------------------------------------------------------------------------------------|
g|--------------------------------------------------------------------------------------|
d|-4-4-4-4-4-4-4-4-4-4-4-4-4-4-4-4-6-6-6-6-6-6-6-6-6-6-6-6-6-6-6-6-6-6-6-6-6-6-6-6-6-6--|
a|-4-4-4-4-4-4-4-4-4-4-4-4-4-4-4-4-6-6-6-6-6-6-6-6-6-6-6-6-6-6-6-6-6-6-6-6-6-6-6-6-6-6--|
d|-4-4-4-4-4-4-4-4-4-4-4-4-4-4-4-4-6-6-6-6-6-6-6-6-6-6-6-6-6-6-6-6-6-6-6-6-6-6-6-6-6-6--|


e|--------------------------------------------------------------------------------------|
b|--------------------------------------------------------------------------------------|
g|--------------------------------------------------------------------------------------|
d|-8-8-8-8-8-8-8-8-8-8-8-8-8-8-8-8-6-6-6-6-6-6-6-6-6-6-6-6-6-6-6-6-6-6-6-6-6-6-6-6-6-6--|
a|-8-8-8-8-8-8-8-8-8-8-8-8-8-8-8-8-6-6-6-6-6-6-6-6-6-6-6-6-6-6-6-6-6-6-6-6-6-6-6-6-6-6--|
d|-8-8-8-8-8-8-8-8-8-8-8-8-8-8-8-8-6-6-6-6-6-6-6-6-6-6-6-6-6-6-6-6-6-6-6-6-6-6-6-6-6-6--|

| /  slide up
| \  slide down
| h  hammer-on
| p  pull-off
| ~  vibrato
| +  harmonic
| x  Mute note
===============================================================================

            
            
Suggest correction
Creating personal tab
Creating personal tab
You can edit any tab online and save it as your Personal.

You can edit, replace or remove any tab part or add personal notes – all changes will be seen only by you.

Personal tabs can be accessed anytime from any device, even offline.
Learn more »
comments
print report bad tab
11 comments total. Showing first comments.
0 reply
IPxKiller 186 Nov 24, 2006 08:40 PM

the second guitar doesnt do that sound .... he have his own thing on the chorus

0 reply
guitarsuperman2 31 Nov 30, 2006 06:33 AM

really, well im the only one whos tabbed the chorus right.

0 reply
guitarsuperman2 31 Nov 30, 2006 06:38 AM

and its alternatly picking. it runs together like...the 2's on e and b, shouldnt be played at the same time.


Chorus: guitar1
e|--------2-------2--------2-------2-----------------------------------------------|
b|-----2---2---2---2---2---2---2---2------1---------1---------2--------2-----------|
g|--3--------3-----------------------------3---3----3---3----4----4---4---4--------|
d|---------------------3-------3--------3---------3--------4---------4-------------|
A|---------------------------------------------------------------------------------|
d|---------------------------------------------------------------------------------|repeat

guest
You may want to rate the tab now too:
select rating
Wanna post a correction for this tab? Suggest correction