Oops, an error
Loading. Please wait.

Who I Am tab

version 2
version 2

Whole song

2,997 views 1 this week
7 commentsread comments
1 2 3 4 5
x 11
add to favorites
×
Save as Personal and add changes to this tab that will be seen only by you. Learn more ›
×
You can save this tab as Personal to edit and correct it or add notes. All changes will be seen only by you. Learn more »
launch autoscroll
font size
0
reset
how to read this tab
guitar tuner
edit
Autoscroll
slow
fast
+/-
esc
set tempo
stop
Smile Empty Soul – Who I Am
Tuning: Drop C
~~ = Slide
(x#) = How many time played

I only did Sean version of playing, the number of time hitting the chord is probably off 
one or two. So just rely on your timing


   Intro: Played 10 Times
D|--------------------------------------------------------------------------|
A|--------------------------------------------------------------------------|
F|--------------------------------------------------------------------------|
C|-----------------------------------9-9-9-9--------------------------------|
G|-------------- 6-6-6-6----7-7-7-7-----------------------------------------|
C|------6-6-6-6-------------------------------------------------------------|

   Pre-Chorus: Played 1 Time
D|--------------------------------------------------------------------------|
A|--------------------------------------------------------------------------|
F|--5----------7-------------5----------------------------------------------|
C|--3-------0--x--0--0-------3------0--7--10--------------------------------|
G|--3(x8)-—-0--5—-0--0(x4)---3(x8)--0--7—-10(x4)----------------------------|
C|--3-------0--0--0--0-------3------0--7--10--------------------------------|
       Chorus: Played 1 Time
D|--------------------------------------------------------------------------|
A|--------------------------------------------------------------------------|
F|--------5-----------------------------------------------------------------|
C|--0-----5(x5)-5-----8-----3-----5-----8------2----------------------------|
G|--0(x5)-3-----5(x5)-8(x5)-3(x5)-5(x5)-8(x10)—2(x4)------------------------|
C|--0-----------5-----8-----3-----5-----8------2----------------------------|

D|--------------------------------------------------------------------------|
A|--------------------------------------------------------------------------|
F|--------5-----------------------------------5~~7--------------------------|
C|--0-----5(x5)-5-----8-----3-----5-----8-----3~~5--------------------------|
G|--0(x5)-3-----5(x5)-8(x5)-3(x5)-5(x5)-8(x8)—3~~5--------------------------|
C|--0-----------5-----8-----3-----5-----8-----3~~5--------------------------|

   Intro: Played 6 Times
D|--------------------------------------------------------------------------|
A|--------------------------------------------------------------------------|
F|--------------------------------------------------------------------------|
C|-----------------------------------9-9-9-9--------------------------------|
G|-------------- 6-6-6-6----7-7-7-7-----------------------------------------|
C|------6-6-6-6-------------------------------------------------------------|

   Pre-Chorus: Played 1 Time
D|--------------------------------------------------------------------------|
A|--------------------------------------------------------------------------|
F|--5----------7-------------5----------------------------------------------|
C|--3-------0--x--0--0-------3------0--7--10--------------------------------|
G|--3(x8)-—-0--5—-0--0(x4)---3(x8)--0--7—-10(x4)----------------------------|
C|--3-------0--0--0--0-------3------0--7--10--------------------------------|
    Chorus: Played 1 Time
D|--------------------------------------------------------------------------|
A|--------------------------------------------------------------------------|
F|--------5-----------------------------------------------------------------|
C|--0-----5(x5)-5-----8-----3-----5-----8------2----------------------------|
G|--0(x5)-3-----5(x5)-8(x5)-3(x5)-5(x5)-8(x10)—2(x4)------------------------|
C|--0-----------5-----8-----3-----5-----8------2----------------------------|

D|--------------------------------------------------------------------------|
A|--------------------------------------------------------------------------|
F|--------5-----------------------------------------------------------------|
C|--0-----5(x5)-5-----8-----3-----5-----8-----------------------------------|
G|--0(x5)-3-----5(x5)-8(x5)-3(x5)-5(x5)-8(x8)—------------------------------|
C|--0-----------5-----8-----3-----5-----8-----------------------------------|

    Bridge: Played 2 Times
D|--------------------------------------------------------------------------|
A|--------------------------------------------------------------------------|
F|-5----~~9----~~10---~~7------------(x2)-----------------------------------|
C|-3----~~7----~~8----~~5------------(x2)-----------------------------------|

G|-3(x8)~~7(x8)~~8(x8)~~5(x8)--------(x2)-----------------------------------|
C|-3----~~7----~~8----~~5------------(x2)-----------------------------------|

    Pre Chorus: Played 1 Time
D|--------------------------------------------------------------------------|
A|--------------------------------------------------------------------------|
F|-0-----10-----5------8----------------------------------------------------|
C|-0-----10-----5------8----------------------------------------------------|
G|-0(x5)-10(x5)-5(x5)—-8(x5)------------------------------------------------|
C|-0-----10-----5------8----------------------------------------------------|
     Chorus: Played 1 Time
D|--------------------------------------------------------------------------|
A|--------------------------------------------------------------------------|
F|--------5-----------------------------------------------------------------|
C|--0-----5(x5)-5-----8-----3-----5-----8------2----------------------------|
G|--0(x5)-3-----5(x5)-8(x5)-3(x5)-5(x5)-8(x10)—2(x4)------------------------|
C|--0-----------5-----8-----3-----5-----8------2----------------------------|

D|--------------------------------------------------------------------------|
A|--------------------------------------------------------------------------|
F|--------5-----------------------------------5~~7~~10----------------------|
C|--0-----5(x5)-5-----8-----3-----5-----8-----3~~5~~8-----------------------|
G|--0(x5)-3-----5(x5)-8(x5)-3(x5)-5(x5)-8(x8)—3~~5~~8-----------------------|
C|--0-----------5-----8-----3-----5-----8-----3~~5~~8-----------------------|
Suggest correction
Creating personal tab
Creating personal tab
You can edit any tab online and save it as your Personal.

You can edit, replace or remove any tab part or add personal notes – all changes will be seen only by you.

Personal tabs can be accessed anytime from any device, even offline.
Learn more »
comments
print report bad tab
7 comments total. Showing first comments.
+3 reply
logitech8962 10 Jun 07, 2008 01:58 AM

Sounds really good love it

+1 reply
SESRULE 10 Jun 07, 2008 11:40 AM

man this is amazing can u tab Every Sunday?

-1 reply
tewells28 456 Jun 08, 2008 08:47 AM

This tab is off and the song is not in C.Missing notes in the intro and what is up with 9 on c string and chorus?It's wrong.I give you credit for trying but it's wrong.YOU NEED TO REALLY LISTEN TO THE SONG

guest
You may want to rate the tab now too:
select rating
Wanna post a correction for this tab? Suggest correction