Oops, an error
Loading. Please wait.

With This Knife tab

version 4
version 4

Whole song

Interactive

7 views 1 this week
no commentswrite comment
1 2 3 4 5
3 more votes to show rating
add to favorites
×
Save as Personal and add changes to this tab that will be seen only by you. Learn more ›
×
You can save this tab as Personal to edit and correct it or add notes. All changes will be seen only by you. Learn more »
launch autoscroll
font size
0
reset
how to read this tab
guitar tuner
edit
Autoscroll
slow
fast
+/-
esc
set tempo
stop
Drop C# (high to low) eb Bb Gb Db Ab Db
 
[Intro]
Finger pick or with a pick
e|--0-----0-----0---------------------------5-----------------0-----------|
B|----6-----6-----6-----6-----6---------8-----8---8-----6-------6---------|
G|------7-----7-------7-----7---7-----7---7-----7-----5-----5-----5-------|
D|------------------8-----7-------7-5---------------3-----2---------------|
A|------------------------------------------------------------------------|
E|------------------------------------------------------------------------|

[Verse]
Finger pick or with a pick
e|-0-----0-----0---------------------------5-----------------0------------------------|
B|---6-----6-----6-----6-----6---------8-----8---8-----6-------6----------------------|
G|-----7-----7-------7-----7---7-----7---7-----7-----5-----5-----5--------------------|
D|-----------------8-----7-------7-5---------------3-----2----------------------------|
A|------------------------------------------------------------------------------------|
E|------------------------------------------------------------------------------------|

[Chorus]
Play with a pick
e|-0-----0-----0--------------------------------------------|
B|-6-----6-----6--------------------------------------------|
G|-7-----7-----7-----7-----5---5----------------------------|
D|-8-----8-----7-----5-----3---2----------------------------|
A|-0-----8-----7-----5-----3---2----------------------------|
E|-0-----8-----7-----5-----3---2----------------------------|

[Interlude]
Play with a pick
e|-------------------------------------------------------------|
B|-------------------------------------------------------------|
G|-------------------------------------------------------------|
D|-14---14--15---8---7---7--5----------------------------------|
A|-12---14--15---5---5---3--3----------------------------------|
E|-12---14--15---5---5---3--3----------------------------------|


[Verse]
Play with a pick
e|-0--0--5--0--0--------------------------------------------|
B|-6--6--8--6--6--------------------------------------------|
G|-7--7--7--5--5--------------------------------------------|
D|-8--7--5--3--2--------------------------------------------|
A|----------------------------------------------------------|
E|----------------------------------------------------------|

[Chorus]
Play with a pick
e|-0-----0-----0------------------------|
B|-6-----6-----6------------------------|
G|-7-----7-----7-----7-----5---5--------|
D|-8-----8-----7-----5-----3---2--------|
A|-0-----8-----7-----5-----3---2--------|
E|-0-----8-----7-----5-----3---2--------|

[Bridge]
Play with a pick
e|-----------------------------------|
B|-----------------------------------|
G|-----------------------------------|
D|-14---14--15---8---7---7--5--------|
A|-12---14--15---5---5---3--3--------|
E|-12---14--15---5---5---3--3--------|

[Outro]
Finger pick or with a pick
e|--0-----0-----0---------------------------5-----------------0-------0----|
B|----6-----6-----6-----6-----6---------8-----8---8-----6-------6-----6----|
G|------7-----7-------7-----7---7-----7---7-----7-----5-----5-----5---7----|
D|------------------8-----7-------7-5---------------3-----2-----------8----|
A|-------------------------------------------------------------------------|
E|-------------------------------------------------------------------------|

There you have it!  This is the correct way to play this song.  
A few tidbits, one is I dont have time to show all the strumming, 
just listen to the song and you'll figure it out. 
Two, the interlude is down strumming only, the
bridge is alternate strumming, just listen and you'll
hear it!

If you have ant questions, or want to see me play it, shoot me an
email dl839481@gmail.com
Suggest correction
Creating personal tab
Creating personal tab
You can edit any tab online and save it as your Personal.

You can edit, replace or remove any tab part or add personal notes – all changes will be seen only by you.

Personal tabs can be accessed anytime from any device, even offline.
Learn more »
Give kudos to tab author, rate the tab!
1 2 3 4 5
comments
print report bad tab
guest
You may want to rate the tab now too:
select rating
Wanna post a correction for this tab? Suggest correction