Oops, an error
Loading. Please wait.

Blood And Roses Bass

version 2
version 2

Whole song

Interactive

7,915 views 21 this week
no commentswrite comment
1 2 3 4 5
x 4
add to favorites
×
Save as Personal and add changes to this tab that will be seen only by you. Learn more ›
×
You can save this tab as Personal to edit and correct it or add notes. All changes will be seen only by you. Learn more »
save as personal
new!
launch autoscroll
font size
0
reset
guitar tuner
Autoscroll
slow
fast
+/-
esc
set tempo
stop
Difficulty
Tuning
intermediate
D# G# C# F#
You should be able to figure out the timing and when to play each part pretty easily. 
tougher in solo.
Part 1 (main part)
Gb|-------------------|
Db|------0---------4--|
Ab|---2---2----2--5-5-|
Eb|0-3-3----0-3-3-----|

Part 2 (Chorus)
Blood N Roses by The Smithereens
Gb|-------------------------------------------------|
Db|--------00-022-2--------00-022-2-----0-----0-----|
Ab|33-333-3--------33-333-3--------33-33-32002-20---|
Eb|----------------------------------------------30-|

part 3 (solo)
(3a)
Gb|--------------------|
Db|2222-5555-2222-5500-|
Ab|--------------------|
Eb|--------------------|
(3b)
Gb|--------------------|
Db|2224-5554-2224-5500-|
Ab|--------------------|
Eb|--------------------|
(3a)
Gb|-------------------|
Db|22552200-----------|
Ab|-------------------|
Eb|-------------------|

timing for part 3
ax2
bx2
cx8
Suggest correction
comments
print report bad tab
guest
Wanna post a correction for this tab? Suggest correction