Oops, an error
Loading. Please wait.

Girl Like You bass

version 1
version 1

Whole song

Interactive

2,607 views 12 this week
2 commentsread comments
1 2 3 4 5
x 8
add to favorites
×
Save as Personal and add changes to this tab that will be seen only by you. Learn more ›
×
You can save this tab as Personal to edit and correct it or add notes. All changes will be seen only by you. Learn more »
launch autoscroll
font size
0
reset
guitar tuner
edit
Autoscroll
slow
fast
+/-
esc
set tempo
stop
Author
-----------------------------------------------------------------------------
                        A GIRL LIKE YOU - Smithereens
-----------------------------------------------------------------------------

Tabbed by: Matt Broback
E-mail: 37hambone@gmail.com

Tuning: Eb Ab Db Gb


INTRO
|----------------|-----------------|-----------------|-----------------|
|----------------|-----------------|:----------------|----------------:|
|----------------|-----------------|:------------5---|----------------:|
|----------------|--------------12\|-5-5-5-3-5-------|--1---1-0---3-4--|


VERSE                                                               x3
|-----------------|----------------|----------------|-----------------|
|:----------------|----------------|----------------|--3-3---2-------:|
|:------------5---|----------------|------------5---|------3-----3-2-:|
|-5-5-5-3-5-------|--1---1-0---3-4-|5-5-5-3-5-------|-----------------|

|----------------|----------------|----------------|----------------|
|----------------|----------------|----------------|--3-3---2-------|
|------------5---|----------------|------------5---|------3---------|
|5-5-5-3-5-------|--1---1-0---3-4-|5-5-5-3-5-------|------------0-2-|


PRECHORUS 1
|----------------|----------------|----------------|----------------|
|----------------|----------------|----------------|----------------|
|----------------|----------------|------3-5-5---5-|------------3---|
|3---3---3-0-3-4-|5---5---5-0-5-4-|3---5-----------|5---5---3-5---5-|

|----------------|----------------|----------------|----------------|
|----------------|----------------|3-------3-3---3-|2-----------2---|
|----------------|------------3-5-|----3-------3---|----2-----------|
|3---3---3-0-3-4-|5---5---5-5-----|----------------|--------3-------|


CHORUS 1
|-----------------|-----------------|
|:----------------|----------------:|
|:------------5---|----------------:|
|-5-5-5-3-5-------|--1---1-0---3-4--|


VERSE                                                               x3
|-----------------|----------------|----------------|-----------------|
|:----------------|----------------|----------------|--3-3---2-------:|
|:------------5---|----------------|------------5---|------3-----3-2-:|
|-5-5-5-3-5-------|--1---1-0---3-4-|5-5-5-3-5-------|-----------------|

|----------------|----------------|----------------|----------------|
|----------------|----------------|----------------|--3-3---2-------|
|------------5---|----------------|------------5---|------3---------|
|5-5-5-3-5-------|--1---1-0---3-4-|5-5-5-3-5-------|------------0-2-|


PRECHORUS 2
|----------------|----------------|----------------|----------------|
|----------------|----------------|----------------|7---7-5---------|
|----------------|----------------|------3-5-5---5-|--------7-5-3---|
|3---3---3-0-3-4-|5---5---5-0-5-4-|3---5-----------|--------------5-|

|----------------|----------------|----------------|----------------|
|----------------|----------------|3-------3-3---3-|2-----------2---|
|----------------|------------3-5-|----3-------3---|----2-----------|
|3---3---3-0-3-4-|5---5---5-5-----|----------------|--------3-------|


CHORUS 2                          x4
|-----------------|-----------------|
|:----------------|----------------:|
|:------------5---|----------------:|
|-5-5-5-3-5-------|--1---1-0---3-4--|


SOLO
|----------------|------------------|-----------------|
|----------------|:----------------:|-----------------|
|----------------|:----------------:|--------------12\|
|5---------------|------------------|-----------------|

                                  x4
|-----------------|-----------------|
|:----------------|--3-3---2-------:|
|:------------5---|------3-----3-2-:|
|-5-5-5-3-5-------|-----------------|

|----------------|-----------------|----------------|----------------|
|5---5-------5-6-|7---7---7------7-|5---5-----------|----------------|
|--------5-5-----|----------/5-7---|--------5-5-5-5-|------------5-7-|
|----------------|-----------------|----------------|5---5---5-5-----|

|----------------|---------------2-|----------------|----------------|
|5---5---------6-|7---7---7----3---|3-------3-3---3-|2-----------2---|
|--------5-5-5---|----------/5-----|----3-------3---|----2-----------|
|----------------|-----------------|----------------|--------3-------|


BREAK                             x4
|-----------------|-----------------|
|:----------------|----------------:|
|:----------------|----------------:|
|-5-5-5-3-5---5-5-|5-3-5---3-5-5-3--|

|----------------|----------------|----------------|----------------|
|----------------|-------57-5-----|----------------|----------------|
|----------------|------7-----7-5-|------------5---|----------------|
|5---------------|----------------|5-5-5-3-5-------|--1---1-0---3-4-|

|----------------|----------------|----------------|----------------|
|----------------|--3-3---2-------|----------------|----------------|
|------------5---|------3-----3-2-|------------5---|----------------|
|5-5-5-3-5-------|----------------|5-5-5-3-5-------|--1---1-0---0-2-|


PRECHORUS 3
|----------------|----------------|----------------|----------------|
|----------------|----------------|----------------|7---7-5---------|
|----------------|----------------|------3-5-5---5-|--------7-5-3---|
|3---3---3-0-3-4-|5---5---5-0-5-4-|3---5-----------|--------------5-|

|----------------|----------------|----------------|----------------|
|----------------|----------------|3-------3-3---3-|2-----------2---|
|----------------|------------3-5-|----3-------3---|----2-----------|
|3---3---3-0-3-4-|5---5---5-5-----|----------------|--------3-------|


OUTRO                             x4
|-----------------|-----------------|
|:----------------|----------------:|
|:------------5---|----------------:|
|-5-5-5-3-5-------|--1---1-0---3-4--|
                                                                    x5
|-----------------|----------------|----------------|-----------------|
|:----------------|----------------|----------------|--3-3---2-------:|
|:------------5---|----------------|------------5---|------3-----3-2-:|
|-5-5-5-3-5-------|--1---1-0---3-4-|5-5-5-3-5-------|-----------------|

            
            
Suggest correction
Creating personal tab
Creating personal tab
You can edit any tab online and save it as your Personal.

You can edit, replace or remove any tab part or add personal notes – all changes will be seen only by you.

Personal tabs can be accessed anytime from any device, even offline.
Learn more »
comments
print report bad tab
2 comments total.
0 reply
xsqueakydevli 10 Apr 06, 2015 04:27 PM

It took a play through to realize you didn't mean 10th fret here! Good tab, thanks.

|---------|---------|
|:--------|--------:|
|:------5-|--------:|
|-55535---|-1-10-34-|

0 reply
2cooltoolz 127 Apr 23, 2017 03:32 PM

I love your tabbing format! Mine is very similar, much more like sheet music than the format many use (the "W", "H", "Q" thing. This you can use in performance. Thanks for a great tab!

guest
You may want to rate the tab now too:
select rating
Wanna post a correction for this tab? Suggest correction