Oops, an error
Loading. Please wait.

In A Lonely Place Bass Tab

442 views 1 this week
1 commentread comment
1 2 3 4 5
please rate
add to favorites
launch autoscroll
font size
0
reset
guitar tuner
Tab Pro tools
  • play this tab
  • loop segment
  • change instrument
  • show fretboard
  • metronome
×
Best way to learn
"In A Lonely Place"
Autoscroll
slow
fast
+/-
esc
set tempo
stop
Contributor
                In A Lonely Place 
                  (Bass Cheat)                          


                 Smithereens (The)



     W                   H.           E  E       E  Q    Q    Q    E   
G||-------------------|---------------------||---8--------------------|
D||-------------------|------------------8--||*-----8-----------------|
A||-------------------|---------------------||*----------9----6-------|
E||-------------------|---------------------||---------------------6--|


  E  E  Q    Q.     E     E  E  E  H        E     H        Q.     E     
-----------------------|-----------------------|----------------------||
--------6-----------L--|--6--------------------|------------------8--*||
-----6-----------------|-----6-----------------|---------------------*||
--9--------------------|--------7--4--------4--|--6--------L----------||


  E  E  E  Q.     E  E     E  H.           E       H        Q.     E   
------------------------|---------------------||----------------------|
--6---------------------|---------------------||*---------------------|
-----6------------------|---------------------||*---------------------|
--------7--4------L--4--|--6--L------------6--||---7--------L------7--|


  H        Q.     E     H        Q.     E     H        Q.     E   
---------------------|---------------------|---------------------|
---------------------|---------------------|---------------------|
---------------------|---------------------|---------------------|
--9--------L------9--|--7--------L------7--|--6--------L------6--|


  H        Q.     E     H        Q.     E     H        H         
---------------------|---------------------|--------------------|
---------------------|---------------------|--------------------|
---------------------|---------------------|--6-----------------|
--7--------L------7--|--9--------L------9--|--------------------|


  H.           E  E       Q.     Q.     Q       W                  
----------------------||---------------------|-------------------||
---------------------*||--8------6-----------|-------------------||
---------------L-----*||----------------9----|--8----------------||
------------------6---||---------------------|-------------------||




Duration Legend
---------------
W - whole
H - half
Q - quarter
E - 8th
S - 16th
T - 32nd
X - 64th
. - note dotted
|-n-|  - n-tuplets
comments
We did not receive enough feedback on this tab! Please rate:
print report bad tab
1 2 3 4 5
1 comment total.
0 reply
Tyner wrote on June 7 2009, 02:04 pm

This is Tyner.

I like to add one more instruction to the legend.. The L instructs the player to "Let Ring" the previous note.

I want to post or [tab]
guest
You may want to rate the tab now too:
select rating
Please do not post tabs as comments. Select "correction" instead!