Oops, an error
Loading. Please wait.

Heaven Tab

109 views 3 this week
no commentswrite comment
1 2 3 4 5
please rate
add to favorites
launch autoscroll
font size
0
reset
how to read this tab
guitar tuner
Tab Pro tools
  • play this tab
  • loop segment
  • change instrument
  • show fretboard
  • metronome
×
Best way to learn
"Heaven"
Autoscroll
slow
fast
+/-
esc
set tempo
stop
Contributor
Song: Heaven
Artist: Smithfield
Album: The Song That Died Away
Tuning: Standard (EADGBe)
website: http://www.smithfieldmusic.com/

Main Riff
|--------------------------------------|
|-12^---10---15----13--12^--8-/10\-7/8-|
|--------------------------------------|
|--------------------------------------|
|--------------------------------------|x2
|--------------------------------------|

|-----0---------------------------------------0-----------------------------------|
|-3h5---3h5-------------------------------3h5---3h5-------------------------------|
|----------------5-4^------------------------------------5-4^---------------------|
|-----------------------5--4^--5-/7\-4/5------------------------5--4^---2~-0------|
|---------------------------------------------------------------------------------|
|---------------------------------------------------------------------------------|


Verse 1
|---------------------------------------------------------|
|---------------------3-----3-----------------------3-----|
|-----0-------0-----2---2-----2-----0-------0-----2---2---|
|---2-------2-----0---------------2-------2-----0---------|
|-3-------2---------------------3-------2-----------------|
|---------------------------------------------------------|


Verse 2
|-------------------------------|
|-----3---------------3-----3---|
|-------0-----0-----2---2-----2-|
|---2-------2-----0-------------|
|-3-------2---------------------|
|-------------------------------|

|-------------------------------|
|---------------------3-----3---|
|-----0-------0-----2---2-----2-|
|---2-------2-----0-------------|
|-3-------2---------------------|x2
|-------------------------------|

|-------------------------------|
|---------------------3---------|
|-----0-------0-----2---2---2-2-|
|---2-------2-----0-------------|
|-3-------2---------------------|
|-------------------------------|


Chorus
|-1--1--1-x-x-8---8---8--x-x-3--3--3--3-3-3-3-3--3-x-x-|
|-1--1--1-x-x-8---8---8--x-x-3--3--3--3-3-3-3-3--3-x-x-|
|-2--2--2-x-x-9---9---9--x-x-4--4--4--4-4-4-4-4--4-x-x-|
|-3--3--3-x-x-10--10--10-x-x-5--5--5--5-5-5-5-5--5-x-x-|
|-3--3--3-x-x-10--10--10-x-x-5--5--5--5-5-5-5-5--5-x-x-|x4
|-1--1--1-x-x-8---8---8--x-x-3--3--3--3-3-3-3-3--3-x-x-|
  V  V  V V ^ V   V   V  V ^ V  V  V  V ^ V ^ V  V V ^

Main Riff
|--------------------------------------|
|-12^---10---15----13--12^--8-/10\-7/8-|
|--------------------------------------|
|--------------------------------------|
|--------------------------------------|x2
|--------------------------------------|

|-----0---------------------------------------0-----------------------------------|
|-3h5---3h5-------------------------------3h5---3h5-------------------------------|
|----------------5-4^------------------------------------5-4^---------------------|
|-----------------------5--4^--5-/7\-4/5------------------------5--4^---2~-0------|
|---------------------------------------------------------------------------------|
|---------------------------------------------------------------------------------|


Verse 3
|---------------------------------------------------------|
|---------------------3-----3-----------------------3-----|
|-----0-------0-----2---2-----2-----0-------0-----2---2---|
|---2-------2-----0---------------2-------2-----0---------|
|-3-------2---------------------3-------2-----------------|
|---------------------------------------------------------|

Verse 4
|-------------------------------|
|---------------------3-----3---|
|-----0-------0-----2---2-----2-|
|---2-------2-----0-------------|
|-3-------2---------------------|x3
|-------------------------------|

|-------------------------------|
|---------------------3---------|
|-----0-------0-----2---2---2-2-|
|---2-------2-----0-------------|
|-3-------2---------------------|
|-------------------------------|

Chorus
|-1--1--1-x-x-8---8---8--x-x-3--3--3--3-3-3-3-3--3-x-x-|
|-1--1--1-x-x-8---8---8--x-x-3--3--3--3-3-3-3-3--3-x-x-|
|-2--2--2-x-x-9---9---9--x-x-4--4--4--4-4-4-4-4--4-x-x-|
|-3--3--3-x-x-10--10--10-x-x-5--5--5--5-5-5-5-5--5-x-x-|
|-3--3--3-x-x-10--10--10-x-x-5--5--5--5-5-5-5-5--5-x-x-|x8
|-1--1--1-x-x-8---8---8--x-x-3--3--3--3-3-3-3-3--3-x-x-|
  V  V  V V ^ V   V   V  V ^ V  V  V  V ^ V ^ V  V V ^

Main Riff
|--------------------------------------|
|-12^---10---15----13--12^--8-/10\-7/8-|
|--------------------------------------|
|--------------------------------------|
|--------------------------------------|x3
|--------------------------------------|

|-------------------------------10-----|
|-12^---10---15----13--12^--7h8--------|
|--------------------------------------|
|--------------------------------------|
|--------------------------------------|
|--------------------------------------|


| /  slide up
| \  slide down
| h  hammer-on
| p  pull-off
| ~  vibrato
| +  harmonic
| x  mute note
| ^  bend
comments
We did not receive enough feedback on this tab! Please rate:
print report bad tab
1 2 3 4 5
I want to post or [tab]
guest
You may want to rate the tab now too:
select rating
Please do not post tabs as comments. Select "correction" instead!