Oops, an error
Loading. Please wait.

If I Were You chords

160 views 9 this week
no commentswrite comment
1 2 3 4 5
3 more votes to show rating
add to favorites
×
Save as Personal and add changes to this tab that will be seen only by you. Learn more ›
×
You can save this tab as Personal to edit and correct it or add notes. All changes will be seen only by you. Learn more »
launch autoscroll
font size
0
reset
transpose
0
reset
simplify chords
display chords
guitar tuner
edit
Autoscroll
slow
fast
+/-
esc
set tempo
stop
Strumming
There is no strumming pattern for this song yet. and get +5 IQ
[Intro]
Relative to Capo
(2x)
e|---------------------------------------------------|
B|-0h1-0h1-0h1-0h1-3h5-3h5-3-------------------------|
G|---------------------------------------------------|
D|---------------------------------------------------|
A|---------------------------------------------------|
E|---------------------------------------------------|

[Verse]
Cadd9                     G
Wish I could say that I'm happy she's happy there in your arms
Em7                           Dsus4
Wish I could I smile at her smiling instead of falling apart
Cadd9                     G
Never thought that I'd be jealous until you got what I had
Em7                           Dsus4
Never would have let her go if I'd have known how bad I'd want her back
Cadd9 Dsus4
Ooohooo
    Em7         Dsus4   Cadd9
I'm acting like I don't care
Cadd9 Em7
Ooohooo
     Em7         Dsus4   Cadd9
But you've got a good one there

[Chorus]
G
If I were you I wouldn't let her go easy
Cadd9
Tell her she's beautiful until she believes me
Em7                     Dsus4
Kiss her like I'm never gonna quit
Em7                   Cadd9
Love her better than the last guy did
G
If I were you I'd be holding her closer
Cadd9                         
Tell her she's the one I'll never get over
Em7        Dsus4           Cadd9
Do all the things I didn't do
           G
If I were you

[Instrumental]
e|---------------------------------------------------|
B|-0h1-0h1-0h1-0h1-3h5-3h5-3-------------------------|
G|---------------------------------------------------|
D|---------------------------------------------------|
A|---------------------------------------------------|
E|---------------------------------------------------|

[Verse]
Cadd9                     G
It's hard to sit and watch you make her laugh the way that I did
Em7                           Dsus4
Don't fall in love or screw it up 'cos she can mess with your head
Cadd9                         G
Just like that buzz from that cup of whatever she's sipping on
Em7                           Dsus4
If you were me you'd know that she'll drink anything with patron
Cadd9 Dsus4
Ooohooo
Em7         Dsus4   Cadd9
How could I let her leave
Cadd9 Em7
Ooohooo
Em7             Dsus4   Cadd9
I know it's too late for me

[Chorus]
G
If I were you I wouldn't let her go easy
Cadd9
Tell her she's beautiful until she believes me
Em7                     Dsus4
Kiss her like I'm never gonna quit
Em7                   Cadd9
Love her better than the last guy did
G
If I were you I'd be holding her closer
Cadd9                         
Tell her she's the one I'll never get over
Em7        Dsus4           Cadd9
Do all the things I didn't do
           G
If I were you
       Em7                      Dsus4         Cadd9
I'd do whatever it takes not to wind up in my shoes

[Chorus]
G
If I were you I wouldn't let her go easy
Cadd9
Tell her she's beautiful until she believes me
Em7                     Dsus4
Kiss her like I'm never gonna quit
Em7                   Cadd9
Love her better than the last guy did
G
If I were you I'd be holding her closer
Cadd9                         
Tell her she's the one I'll never get over
Em7        Dsus4           Cadd9
Do all the things I didn't do
       Em7                   Dsus4              Cadd9
I wonder how some fool let a girl like her slip through 
If I were you

[Instrumental]
e|---------------------------------------------------|
B|-0h1-0h1-0h1-0h1-3h5-3h5-3-------------------------|
G|---------------------------------------------------|
D|---------------------------------------------------|
A|---------------------------------------------------|
E|---------------------------------------------------|

Oh if I were you

[Outro]
e|---------------------------------------------------|
B|-0h1-0h1-0h1-0h1-3h5-3h5-3-------------------------|
G|---------------------------------------------------|
D|---------------------------------------------------|
A|---------------------------------------------------|
E|---------------------------------------------------|

            
            
Suggest correction
Creating personal tab
Creating personal tab
You can edit any tab online and save it as your Personal.

You can edit, replace or remove any tab part or add personal notes – all changes will be seen only by you.

Personal tabs can be accessed anytime from any device, even offline.
Learn more »
Give kudos to tab author, rate the tab!
1 2 3 4 5
comments
print report bad tab
guest
You may want to rate the tab now too:
select rating
Wanna post a correction for this tab? Suggest correction