Oops, an error
Loading. Please wait.

A Change Of Days Tab

1,066 views 1 this week
no commentswrite comment
1 2 3 4 5
accurate
x 4
add to favorites
launch autoscroll
font size
0
reset
how to read this tab
guitar tuner
Autoscroll
slow
fast
+/-
esc
set tempo
stop
Help us to improve Ultimate-Guitar.com Take our survey!
×
Author
Difficulty
novice
-----------------------------------------------------------------
              Smith's Cloud - A Change of Days
-----------------------------------------------------------------

Tabbed by: Joel C.
Email: jcboxfr AT yahoo DOT fr

Album: "A Change of Days" by Smith's Cloud. Released on June 29th, 2011.

http://www.smithscloudmusic.com

This beautiful song is on the video "Oskar the blind Kitten" on Youtube :-)

Chords:

C - C - C - C 

C - G - Am - Am
C - G - Am - Am
C - G - Bb - F
Am - G - C - C

C - G - Am - Am
C - G - Am - Am
C - G - Bb - F
Am - G - C - C

F - F - Am - G
Am - Am - Gadd4 - G
C - G - Bb - F
Am - G - C - C

C - G - Am - Am
C - G - Am - Am
C - G - Bb - F
Am - G - G

C  - D7 - D7
Am - D7 - D7

C - G - Am - Am
C - G - Am - Am
C - G - Bb - F
Am - G - Am - Am
Am - G - C - C


C        G        Am       Bb       F        D7       G add4
EADGBe   EADGBe   EADGBe   EADGBe   EADGBe   EADGBe   EADGBe
x32010   320003   x02210   x13331   133211   xx0212   320013


Strumming:

Intro:

    C                                  C
e|---------0---0-------0---0---0----|---------0---0---0---0---0---0----|
B|---------1---1-------1---1---1----|---------1---1---1---1---1---1----|
G|---------0---0-------0---0---0----|---------0---0---0---0---0---0----|
D|---------2---2-------2---2---2----|---------2---2---2---2---2---2----|
A|-3--------------------------------|-3--------------------------------|
E|----------------------------------|----------------------------------|
   * | | | * | | | * | | | * | | |    * | | | * | | | * | | | * | | |   

    C                                  C
e|---------0---0-------0---0---0----|---------0---0---0---0---0---0----|
B|---------1---1-------1---1---1----|---------1---1---1---1---1---1----|
G|---------0---0-------0---0---0----|---------0---0---0---0---0---0----|
D|---------2---2-------2---2---2----|---------2---2---2---2---2---2----|
A|-3--------------------------------|-3--------------------------------|
E|----------------------------------|----------------------------------|
   * | | | * | | | * | | | * | | |    * | | | * | | | * | | | * | | |   


Verse
           You...
   C                                  G
e|---------0---0-------0---0---0----|---------3---3-------3---1--------|
B|---------1---1-------1---1---1----|---------0---0-------0---0--------|
G|---------0---0-------0---0---0----|---------0---0-------0---0--------|
D|---------2---2-------2---2---2----|---------0---0-------0---0--------|
A|-3--------------------------------|---------2---2-------2---2--------|
E|----------------------------------|-3-------3---3-------3------------|
   * | | | * | | | * | | | * | | |    * | | | * | | | * | | | * | | |   

   Am                                  Am
e|---------0---0-------0---0---0----|---------0---0--------------------|
B|---------1---1-------1---1---1----|---------1---1--------------------|
G|---------2---2-------2---2---2----|---------2---2--------------------|
D|---------2---2-------2---2---2----|---------2---2--------------------|
A|-0-------0---0-------0---0--------|-0-------0-------0-------2--------|
E|----------------------------------|----------------------------------|
   * | | | * | | | * | | | * | | |    * | | | * | | | * | | | * | | |   

The rest is pretty similar...

The last bar is:

   C                                  C
e|---------0---0-------0---0---0----|-0--------------------------------|
B|---------1---1-------1---1---1----|-1--------------------------------|
G|---------0---0-------0---0---0----|-0--------------------------------|
D|---------2---2-------2---3---2----|-2--------------------------------|
A|-3--------------------------------|-3--------------------------------|
E|----------------------------------|----------------------------------|
   * | | | * | | | * | | | * | | |    * | | | * | | | * | | | * | | |   


Lyrics:

You shake it baby all day and all night
You're getting tired of the wait
Let’s throw the wrench into the notes and rhyme
And we’ll call it the change of days

And all the changes of the water and wine
I see the metaphor this way
Let’s throw a wrench into the space and time
For the sake of the change of days

So come on all you people ain’t it hard for you to know
Celebrate in all the things you say
The part where everything is safe or explodes
And we’ll call it a change of days

Oh oh ohhh
oh oh oh

Say can you see the shinny place in the sky
Sick of your wandering through the haze
They say we go to a better place when we die
And they call it a change of days
And they call it a change of days

**********************************************************
Suggest correction
comments
print report bad tab
guest
You may want to rate the tab now too:
select rating
Please do not post tabs as comments. Select "correction" instead!