Oops, an error
Loading. Please wait.

Buscando Siempre Tab

by Smitten
5 views 1 this week
no commentswrite comment
1 2 3 4 5
3 more votes to show rating
add to favorites
launch autoscroll
font size
0
reset
how to read this tab
guitar tuner
×
Best way to learn
"Buscando Siempre"
Autoscroll
slow
fast
+/-
esc
set tempo
stop
pm=palm mute

Intro
|------------------------|
|------------------------|
|------------------------|
|-5-5-5-5-5-5-5-5-5------|
|-5-5-5-5-5-5-5-5-5------|
|-3-3-3-3-3-3-3-3-3------|
pm_________________

Verso
|--------------------------|--------------------------|
|--------------------------|--------------------------|
|--------------------------|--------------------------|
|-----5-----5-----5-----5--|-----3-----3-----3-----3--|
|-----5-----5-----5-----5--|-----3-----3-----3-----3--|
|-3-3-3-3-3-3-3-3-3-3-3-3--|-1-1-1-1-1-1-1-1-1-1-1-1--|
pm___   ___   ___   ___      ___   ___   ___   ___ 

|--------------------------|--------------------------|
|--------------------------|--------------------------|
|--------------------------|-----5-----5-----5-----5--|
|-----7-----7-----7-----7--|-----5-----5-----5-----5--|
|-----7-----7-----7-----7--|-3-3-3-3-3-3-3-3-3-3-3-3--|
|-5-5-5-5-5-5-5-5-5-5-5-5--|--------------------------|
pm___   ___   ___   ___      ___   ___   ___   ___ 


Estribillo
|---------------------------------|---------------------------------|
|---------------------------------|---------------------------------|
|-5-5-5-5-------------------------|-5-5-5-5-------------------------|
|-5-5-5-5-3-3-3-3-5-5-5-5-3-3-3-3-|-5-5-5-5-3-3-3-3-5-5-5-5-5-5-5-5-|
|-3-3-3-3-3-3-3-3-5-5-5-5-3-3-3-3-|-3-3-3-3-3-3-3-3-5-5-5-5-5-5-5-5-|
|---------1-1-1-1-3-3-3-3-1-1-1-1-|---------1-1-1-1-3-3-3-3-3-3-3-3-|

ORDEN DE LA CANCION:
Intro x1
Verso x2
EStribillo x2
Intro x1
Verso x2 (aca sin palm mute)
Estribillo x2
Intro x1
Estribillo x2
Suggest correction
Give kudos to tab author, rate the tab!
1 2 3 4 5
comments
print report bad tab
guest
You may want to rate the tab now too:
select rating
Wanna post a correction for this tab? Suggest correction