Oops, an error
Loading. Please wait.

Camino Al Destino Tab

version 1
version 1

Whole song

by Smitten
29 views 1 this week
no commentswrite comment
1 2 3 4 5
3 more votes to show rating
add to favorites
launch autoscroll
font size
0
reset
how to read this tab
guitar tuner
×
Best way to learn
"Camino Al Destino"
Autoscroll
slow
fast
+/-
esc
set tempo
stop
Intro

Guitarra 1 repite
E----3---5-3-----------
B--3---3---------------
G------------4h5p4----- 
D----------------------
A----------------------
E----------------------

En la cuarta vuelta entra guitarra 2
    D5       E5            G5           C5         G5    G5*      Em           G5           C5        G5 (dejar sonar)
E--------------------------------------------------------------------------------------------------------------------------
B--------------------------------------------------------------------------------------------------------------------------
G--7-7---99999999999----------------55555555555-----------------------------------------55555555555------------------------
D--7-7---99999999999---55555555555--55555555555--55555555555--22222222222--55555555555--55555555555--5---------------------
A--5-5---77777777777---55555555555--33333333333--55555555555--22222222222--55555555555--33333333333--5---------------------
E----------------------33333333333---------------33333332222--00000000000--33333333333---------------3---------------------

(Verso) (apoyando la palma derecha)
Em
No puedo tocar tu pelo
G5
No puedo tenerte y muero
C5                          
Llegue muy tarde a tu vida 
              G5 G5*
y allí estaba él
Em
Pude descubrir tu cuerpo
G5
Pude amarte en silencio
C5                       
Pense que iba a tenerte 
          G5 F#5
Todo se fue 

(Puente)
E5                   G5                      C5               G5 G5*
Nuestras miradas quebraron un sueño que un día nos lleva a vencer
Em                        G5                  C5               G5
Recuerdo el nombre de aquella esperanza que quise y nunca tendré

(Voz solamente)
Llevo tu perfume eterno
Recuerdo tu voz diciendo 
Te quiero mucho, nunca te olvidaré
(entran las guitarras)
Em
Se que al vernos moriremos
G5
Y en silencio pensaremos 
C5
El camino al destino
               G5 F#5
Que no pudo ser

E5                   G5               C5               G5 G5*
Nuestros lamentos dibujan secretos ocultos que recordaré
Em                  G5               C5                    G5
La mala fortuna está de mi lado la quiero y nada puedo hacer

(Solo 1)
E----7\12---15------15------15---------------------------------------------------------------------
B--------------15------13------12------------------------------------------------------------------
G----------------------------------14-11-----------------------------------------------------------
D--------------------------------------------------------------------------------------------------
A--------------------------------------------7-7-7-7-7-7-9-10--------------------------------------
E--------------------------------------------------------------10-10-10-8-7-8-7-5-3-3-5-5\7-8/5----

E---------------------------------------------------------------------------------------------------
B---------------------------------------------------------------------------------------------------
G---------------------------------------------------------------------------------------------------
D-2-2---2-------------------------------------------------------------------------------------------
A-----5---5-5-2-------------------------------------------------------------------------------------
E---------------5-3-5-3-3-3-3-5\7-5-3-3-------------------------------------------------------------

E5                    G5                C5                 G5 G5*
Nuestras miradas quebraron un rumbo marcado fue algo especial
Em                          G5          C5             G5 
Siempre en mi vida habrá un ángel con hermosura universal
Em                          G           C 
Siempre en mi vida habrá un ángel con hermosura  (sin distorsión)
       G5
universal    (vuelve la distorsión)

(Solo 2)
E---12-12-12-12-12-14-15----------------------------------------------------------
B------------------------15-15-15-13-12-13-12-------------------------------------
G---------------------------------------------14-12-12-14-14/16-17\14-------------
D---------------------------------------------------------------------------------
A---------------------------------------------------------------------------------
E---------------------------------------------------------------------------------

E---12-12-12-----12-----------------------------------17b-15-15-------------------
B-------------15----15-15-13-12----12---------------------------------------------
G-------------------------------14----14-12---------------------------------------
D---------------------------------------------------------------------------------
A---------------------------------------------------------------------------------
E---------------------------------------------------------------------------------


Referencias
B    estirar
/ \  slide
4h5p4 darle 1 vez a la cuerda y martillar rapidamente con la otra mano los trastes indicados

Tab hecha por Sebastián Rossini
cualquier cosa manden un mail a shingo_starr@
Suggest correction
Give kudos to tab author, rate the tab!
1 2 3 4 5
comments
print report bad tab
guest
You may want to rate the tab now too:
select rating
Wanna post a correction for this tab? Suggest correction