Oops, an error
Loading. Please wait.

Camino Al Destino Tab

version 2
version 2

Whole song

35 views 1 this week
no commentswrite comment
1 2 3 4 5
3 more votes to show rating
add to favorites
launch autoscroll
font size
0
reset
how to read this tab
guitar tuner
Autoscroll
slow
fast
+/-
esc
set tempo
stop
Help us to improve Ultimate-Guitar.com Take our survey!
×
Aqui va una de las canciones mas emotivas de smitten:
Va dedicada para Elisa...

Intro (Patrick):

e[----3-5-3-------3-5-3--] 
b[--0-------0-1-0--------]
g[-----------------------]
d[-----------------------] X 18
a[-----------------------]
E[-----------------------]

Intro (Chuky):

e[---------------------]  
b[---------------------]  
g[----------5555-------]  
d[--222-555-5555-5555--] X 2 
a[--222-555-3333-5555--]  
E[--000-333------3333--]

Verso(Dos guitarras) :    Pre-Coro(Patrick) :

e[---------------------]      [------------]
b[---------------------]      [---888-777--]
g[----------5555-------]      [---777-666--]
d[--222-555-5555-5555--] X 2  [---555-444--] X 1
a[--222-555-3333-5555--]      [------------]
E[--000-333------3333--]      [------------]
 (-------P.M-----------)

Coro (Dos guitarras) :

e[---------------------]  
b[---------------------]  
g[----------5555-------]  
d[--222-555-5555-5555--] X 2 
a[--222-555-3333-5555--]  
E[--000-333------3333--]

Verso X2, Pre coro X 1 , Coro X 2 

Despues el solo.

Solo (Patrick) :

e[--7/s/12-15-10-15-8-7-5-----------------------------------------
b[------------------------3---------------------------------------
g[----------------------------------------------------------------
d[----------------------------------------------------------------
a[---------------------------77777-9-7-10-7-555--------------------
E[----------------------------------------------8-7-8-7-5-3-5-3-7-5

e[----------------------------------------]
b[----------------------------------------]
g[----------------------------------------]
d[----------------------------------------]
a[--7777-5-7-55---------------------------]
E[--------------7-5-33-5-3-7-5-33---------]

Mientras patrick Toka el solo, Chuky toka el coro X 4

Luego el coro otra vez x 2

Despues el Break de Piano y voz X 1

y despues el Solo 2 que es tambien el Outro:

e[--12-12-12-12-14-12-15-12-10-10-----------------------------
b[--------------------------------13-12-13-12-10-8-10-8-12-10-
g[------------------------------------------------------------
d[------------------------------------------------------------
a[------------------------------------------------------------
E[------------------------------------------------------------

e[--12-12-12-10-12-10-10-----------------17(B)-15-15(R)-------]
b[-----------------------12-10-12-10-8-8----------------------]
g[------------------------------------------------------------]
d[------------------------------------------------------------]
a[------------------------------------------------------------]
E[------------------------------------------------------------]
(En el outro, Chuky toka el coro)

(B) = DObLAr cuerda
(R) = Deja sonar
P.M = Palm Mute

Eso es todo....Arriba Smitten!!....Y esperen q se viene Nada Nuevo
El mejor grupo Hardcore de Chile!!
Suggest correction
Give kudos to tab author, rate the tab!
1 2 3 4 5
comments
print report bad tab
guest
You may want to rate the tab now too:
select rating
Wanna post a correction for this tab? Suggest correction