Oops, an error
Loading. Please wait.

Camino Al Destino Tab

version 3
version 3

Whole song

by Smitten
30 views 1 this week
no commentswrite comment
1 2 3 4 5
3 more votes to show rating
add to favorites
launch autoscroll
font size
0
reset
how to read this tab
guitar tuner
Autoscroll
slow
fast
+/-
esc
set tempo
stop
Intro

 e|---3---5-3-----|
 b|-3---3---------|
 g|-----------4/5-|
 d|---------------|
 a|---------------|
 E|---------------|

   Punteo intermedio

 e|----------------------------------------------------|
 b|-12/17--20----20----20------------------------------|
 g|-----------19----17----16---------------------------|
 d|--------------------------19-16--------16-17--------|
 a|--------------------------------19(x5)-------17(x3)-|
 E|----------------------------------------------------|

 e|---------------------------------------------------------|
 b|---------------------------------------------------------|
 g|---------------------------------------------------------|
 d|---------------------------------------------------------|
 a|-15-14-15-14-------------14------------------------------|
 E|-------------17-15-17-15----17--19(x3)-17-19-17-17-15-14-|

 e|-----------------------------|
 b|-----------------------------|
 g|-----------------------------|
 d|-----------------------------|
 a|----14----------14/15^-------|
 E|-17----17-15-15--------15-15-|


   Punteo final

 e|---------------------------------------------------------|
 b|-17(x5)-19-20--------------------------------------------|
 g|--------------19(x3)-17-16-17-16-------------16-17-16----|
 d|---------------------------------19-17-19-17----------19-|
 a|---------------------------------------------------------|
 E|---------------------------------------------------------|

 e|----------------------------------------19^-15-15v-|
 b|-17(x4)--------------------------------------------|
 g|--------19-17-19-17-16----16-----------------------|
 d|-----------------------19----19-17-17v-------------|
 a|---------------------------------------------------|
 E|---------------------------------------------------|


   Letra

 E5
 No puedo tocar tu pelo
 G5
 no puedo tenerte y muero
 C5
 llegue muy tarde a tu vida
           G5  F#5
 ya estaba él

 E5
 pude descubrir tu cuerpo
 G5
 pude amarte en silencio
 C5
 pense que iba a tenerte
          G5  F#5
 todo se fue

 E5                  D5
 Nuestras miradas quebraron un sueño
         C5               G5  D5
 que un dia nos iba a vencer
 E5                      D5
 recuerdo el nombre de aquella esperanza
      C5                G5
 que quize y nunca tendré

 E5
 llevo tu perfume eterno
 G5
 recuerdo tu voz dicindo
 C5                              G5  F#5
 te quiero mucho nunca te olvidare

 E5
 se que al vernos moriremos
 G5
 y en silencio pensaremos
       C5                           G5  F#5
 el camino al destino que no pudo ser

 E5                   D5
 nuestros lamentos dibujan secretos
   C5                G5 D5
 ocultos que recordaré
     E5            D5
 la mala fortuna está de mi lado
      C5                  G5
 la quiero y nada puedo hacer


 =punteo intermedio=

 E5                   D5
 Nuestras miradas quebraron un rumbo
     C5                 G5 D5
 marcado fue algo especial
 E5                          D5
 siempre en mi vida habrá un ángel
          C5          G5
 con hermosura universal
 E5                          D5
 siempre en mi vida habrá un ángel
           C5         G5
 con hermosura universal

 =Punteo Final=

 =NOTAS=
   E5   G5  C5  D5  F#5
 e|-x-|-x-|-x-|-x-|-x-|
 b|-x-|-x-|-x-|-x-|-x-|
 g|-9-|-x-|-5-|-7-|-x-|
 d|-9-|-5-|-5-|-7-|-4-|
 a|-7-|-5-|-3-|-5-|-4-|
 E|-x-|-3-|-x-|-x-|-2-|

 Esta canción c la dedico a mi Evy, la niñita q
 m robo m corazn, t kiero mxo mxo mxoooOOO! y a la
 claudia = su amiga q m cae la raja jiji pa ti = las
 kiero mxo a las dos y ojala q esto dure para siempre.
 q el amor les acompañe y q la musica fluya en sus
 corazones.
 =curanilahue 30/4/05=

    /)/)(\(\   T KIERO...
   ( ';');' )
  (     )  ( )
 (') (')(') (')
Suggest correction
Give kudos to tab author, rate the tab!
1 2 3 4 5
comments
print report bad tab
guest
You may want to rate the tab now too:
select rating
Wanna post a correction for this tab? Suggest correction