Oops, an error
Loading. Please wait.

Cenizas Bass Tab

7 views 1 this week
no commentswrite comment
1 2 3 4 5
3 more votes to show rating
add to favorites
launch autoscroll
font size
0
reset
guitar tuner
Autoscroll
slow
fast
+/-
esc
set tempo
stop
Help us to improve Ultimate-Guitar.com Take our survey!
×
smitten cenizas
elaborado por bryan belliard

G|------------------------------------------|
D|------------------------------------------|
A|-7--2--3----------------------------------|
E|----------3-------------------------------|
por que siempre cuesta creer
G|------------------------------------------|
D|------------------------------------------|
A|---5--7--5--7------5---3---5--------------|
E|------------------------------------------|
coro
G|-------------------------------------------|
D|------5----------555--7-5-----5------------|
A|--7-------3----------------7-----3---------|
E|--------------3---------------------3------|
interlude 1:03
G|------------------------------------------|
D|------------------------------------------|
A|--5--3--1------5--2--1--------------------|
E|-----------1------------1-----------------|
bueno para mis colegas bajistas aqui esta
por fin la tab para bajo d cenizas d smitten
que la disfruten!!!!
LOURDES TE AMOO!! MI CORAZOZON!
Suggest correction
Give kudos to tab author, rate the tab!
1 2 3 4 5
comments
print report bad tab
guest
You may want to rate the tab now too:
select rating
Wanna post a correction for this tab? Suggest correction