Oops, an error
Loading. Please wait.

Crazy Song Tab

24 views 1 this week
no commentswrite comment
1 2 3 4 5
3 more votes to show rating
add to favorites
launch autoscroll
font size
0
reset
how to read this tab
guitar tuner
×
Best way to learn
"Crazy Song"
Autoscroll
slow
fast
+/-
esc
set tempo
stop
aca les va una buena tab!

INTRO
 1|------------------------------|------|
 2|------------------------------|------|
 3|-7-7------------7-7-----------|-9-11-|
 4|-7-7------------7-7-----------|-x--x-|
 5|-5-5--5--5-5-5--5-5--5--5-5-5-|-7--9-|
 6|------------------------------|------|
pm       .. .....       .. .....
 
  
  riff
 1|--------------------------------------------------------|
 2|--------------------------------------------------------|
 3|--------------------------------------------------------|
 4|-7-%%%%-11-9-7-------11-9-7-------11-9-7----------------|
 5|-5-%%%%--9-7-5-7%%%%--9-7-5-5%%%%--9-7-5-7------5-----7-|
 6|---------------5%%%%--------3%%%%--------5--3-3-3-5-5-5-|
pm          .....        .....        .....    ...   ...


VERSO 1
D                                      G  
Quizás solo sea yo pero no entendés igual, 
    A            D
si vas a ver el sol 
D(MACHAKE COMO INTRO)       F#
Sentís que solo hoy podés cambiar, 
G        A                   D
querés creer para sentirte bien 

RIFF 1

VERSO 2*COMO VERSO 1)
Quizás solo seas vos pero no entendés igual, 
si vas a ver dolor 
Es que solo estoy, sentís cuando te vas 
tan lejos sin mirar 


1|------------------------------------------------------------------|
2|------------------------------------------------------------------|
3|---7--------------------------------------------------7---7--6--4-|
4|---x--------------------------------------------------x---x--x--x-|
5|---5--------------------------------------------------5---5--4--2-|
6|------------------------------------------------------------------|
?...Cuando en tu vida un abrazo cambió tu manera de actuar, oh oh oh...? 


Cuando en tu cielo un amor tan temprano se te va 


1|-------------------------------------------------------------------|
2|-------------------------------------------------------------------|
3|-------------------------------------------------------------------|
4|------7-7-9h-7--------7-7-9h-7----------7-7-9h-7------7-7-9h-7-----|
5|-- 5-9--------9-7--5-9--------9-7-----9---------9-7--9---------9-7-|      
6|-------------------------------------3--------------5--------------|
?... Quizás  solo  sea  un  sueño más, y  otra  vez  vas a llorar...? 


1|-----------------------------------------|
2|-----------------------------------------|
3|-----------------------------------------|
4|------7-7-9h-7----------7-7-9h-7---------|
5|--5-9----------9-7--5-9----------9-7-----|
6|-----------------------------------------|
?...Creo que sé como escribir canciones...? 


  F#                          G
y no entendés que todo lo que hacés 
A
Hoy tira contra vos 

(como ?...cuando en tu vida...?)
Cinco sentidos dormidos y un puño a punto de estallar, 
oh oh oh, 
Cada segundo quemado, un sueño que se va 
Watch out!!! 

D                                         G
Quizás solo sea el sol pero no entendés igual, 
             G
si vas a ver.


aguante FIEL SOLEDAD
esta tab esta dedicada a leo 77
Suggest correction
Give kudos to tab author, rate the tab!
1 2 3 4 5
comments
print report bad tab
guest
You may want to rate the tab now too:
select rating
Wanna post a correction for this tab? Suggest correction