Oops, an error
Loading. Please wait.

Desconfio Chords

version 2
version 2

Whole song

by Smitten
99 views 1 this week
no commentswrite comment
1 2 3 4 5
3 more votes to show rating
add to favorites
×
Save as Personal and add changes to this tab that will be seen only by you. Learn more ›
×
You can save this tab as Personal to edit and correct it or add notes. All changes will be seen only by you. Learn more »
save as personal
new!
launch autoscroll
font size
0
reset
transpose
0
reset
simplify chords
display chords
guitar tuner
Autoscroll
slow
fast
+/-
esc
set tempo
stop
Strumming
There is no strumming pattern for this song yet. and get +5 IQ
smitten
descofio

acordes:

D5: X577XX      B5: 799XXX

Em5: X220XX    A5: 577XXX

G#: 355433      F#: 244322

Gm: 355333    D#: X68886


(intro) con palm mute:PM

D5P 
No se porqué,
F#P 
Imaginé,
G#P 
Que estábamos unidos,
GmPM
Y me sentí mejor.

SE TOCA TODA LA CANCION CON DISTORCION

             D5  B5
Pero aquí estoy,
           Em5
Tan solo en la vida,
     A5         [D5 G# D5 A5]
Que mejor me voy.

           D5
Un viejo blues,
               F#
Me hizo recordar,
                        G#
Momentos de mi vida,
               Gm
Y mi primer amor

***(esta parte la toca diferente a las demas
porque hace un rasgueo cortado hasta que llega al
[D5 G# D5 A5],B no se entiende escuchen la cancion)***

              D5  B5
Pero aquí estoy,
           Em5
Tan solo en la vida,
     A5       [D5 G# D5 A5]
Que mejor me voy.

***(dejar sonando el A5 antes del solo)***
***(una guitarra toca el punteo y otra el acorde
que esta arriba)***
solo:

  [D5]           [F#]        [G#]         [Gm]
E-----------------------14-12-10-9-12-10------------------
B---------------------------------------------------------
G------7-9s11-11-9s7-7--------------------9s11-9-11-9-11--
D--7-9----------------------------------------------------
A---------------------------------------------------------
E---------------------------------------------------------

    [D5]             [B5]        [Em5]       [A5]
E-10-10-9-9-7-7-------7-7----------------------------------
B---------------10-10-----10-10-8-8-7-7-8-8----------------
G-------------------------------------------9-9-7-7-11-----
D----------------------------------------------------------
A----------------------------------------------------------
E----------------------------------------------------------

   [D5]             [G#]         [D5]          [A5]
E----------------------------------------------10--9---
B-----------------8-8-8-8-8-8------------8-8-8---------
G-7-7-7-7-7-7-7-7------------7-7-7-7-7-7------------------
D---------------------------------------------------------
A----------------------------------------------------------
E----------------------------------------------------------
            D5
Un viejo blues,
              F#
Me hizo recordar,
                       G#
Momentos de mi vida,
              Gm
Y mi primer amor.

             D5  B5
Pero aquí estoy,
            Em5
Tan solo en la vida,
           A5        [D5 G# D5 A5]
Que mejor me voy.

      D5
No se porqué,
Imaginé,
Que estábamos unidos,
            G#
Y me sentí mejor.

***(la parte entre parentesis es cantada
por la segunda voz y la siguen los acordes)***

            D5  B5
Pero aquí estoy,
   Em5          A5
Tan solo en la vida,
         D5         G#         Em5          A5
Que mejor me voy.(Tan solo en la vida
                  G#
que mejor me voy)

***(tocar la ultima estrofa medio pausada estilo blues)***

    B5             A5
Tan solo en la vida,
             [D5 G#]  [D# D5]
Que mejor me voy.

***(este punteo del final se toca sobre G# y
G--8---
D----12v-  se tocan sobre D# D5)***

                      G#                    D# D5
E------------------------------------
B--12--10-10-------------------------
G------------12-10-9-8----8----------
D---------------------------12v------
A------------------------------------
E------------------------------------

Para mi la cancion esta perfecta segun vi en el
video,cualkier pregunta o correccion escribanme
a kevin_korn_@
Suggest correction
Give kudos to tab author, rate the tab!
1 2 3 4 5
comments
print report bad tab
guest
Wanna post a correction for this tab? Suggest correction