Oops, an error
Loading. Please wait.

Intento Tab

version 1
version 1

Whole song

by Smitten
46 views 1 this week
no commentswrite comment
1 2 3 4 5
3 more votes to show rating
add to favorites
×
Save as Personal and add changes to this tab that will be seen only by you. Learn more ›
×
You can save this tab as Personal to edit and correct it or add notes. All changes will be seen only by you. Learn more »
save as personal
new!
launch autoscroll
font size
0
reset
how to read this tab
guitar tuner
Autoscroll
slow
fast
+/-
esc
set tempo
stop
(intro)E          G#m           A             B
e|--------------------------------------------------|
B|--------------------------------------------------|
G|--9-----9-----9-----9-----9-----9-----9--8--6--8--|  (x2)
D|-----9-----9-----9-----9-----9-----9--------------|
A|--------------------------------------------------|
E|--------------------------------------------------|

(A) E          G#m           A             B
e|--------------------------------------------------|
B|--------------------------------------------------|
G|--9-----9-----9-----9-----9-----9-----9--8--6--8--|
D|-----9-----9-----9-----9-----9-----9--------------|
A|--------------------------------------------------|
E|--------------------------------------------------|
   Intento alejarme i a la ves me estoi muriendo.

    E          G#m           A             B
e|--------------------------------------------------|
B|--------------------------------------------------|
G|--9-----9-----9-----9-----9-----9-----9--8--6--8--|
D|-----9-----9-----9-----9-----9-----9--------------|
A|--------------------------------------------------|
E|--------------------------------------------------|
   No puedo mirarte i se ke aún sigo sufriendo

(B) C#m               A              C#m
e|---- -- - -- - -- ------------------- -- - -- - -- --|
B|---- -- - -- - -- ------------------- -- - -- - -- --|
G|---- -- - -- - -- ------------------- -- - -- - -- --|
D|---- -- -(11)- -- --------7-----7---- -- -(11)- -- --|
A|----(11)- -- -(11)--------7-----7----(11)- -- -(11)--|
E|--9- -- - -- - -- --9--5--5--5--5--9- -- - -- - -- --|
    Sé ke nunca voi a estar kontigo


    A              C#m                  A           B
e|-------------------- -- -- -- -- -- -----------------------------|
B|-------------------- -- -- -- -- -- -----------------------------|
G|-------------------- -- -- -- -- -- --------------------------9--|
D|--------7-----7----- -- --(11)-- -- --------7-----------9--------|
A|--------7-----7-----(11)-- -- --(11)-----7-----7-----9-----9-----|
E|--9--5--5--5--5--9-- -- -- -- -- -- --5-----------7--------------|
   i jamás serás el abrigo ke me kubra de este frío


  E         G#m           A           B
Intento olvidarte i apareces al instante.
 E          G#m            A        B    
Kiero despertar de este sueño incesante.
 C#m          A            C#m 
Se ke ya no puedo ser tu amigo.
      A           C#m      A            B
Y frakasa mi objetivo, tu temor es mi dolor.

 E          G#m               A       C#m-B
¿Por ké no puedo kumplir mis sueños? 
 E          G#m               A       C#m-B
¿Por ké se rompen mis sentimientos? 
 E          G#m               A     B      E
¿Por ké no puedo kumplir mi sueño junto a vos?

(C)  E         G#m           A           B
e|-------------- -- ------------------------|
B|--9--7--9--7-- -- ---9--7--9--7-----7-----|
G|-------------- -- ---------------9-----8--|
D|--------------(10)------------------------|
A|-------------- -- ------------------------|
E|-------------- -- ------------------------|
     E         G#m           A           B
e|-------------- -- ------------------------|
B|--9--7--9--7-- -- ---9--7--9--7-----7-----|
G|-------------- -- ---------------9-----8--|
D|--------------(10)------------------------|
A|-------------- -- ------------------------|
E|-------------- -- ------------------------|
     C#m          A             C#m 
e|--------------9--9--7--7-- -- -- -- --7-----------|
B|--9--7-----7--------------(10)--(10)-----(10)--9--|
G|--------9----------------- -- -- -- --------------|
D|-------------------------- -- -- -- --------------|
A|-------------------------- -- -- -- --------------|
E|-------------------------- -- -- -- --------------|
     A         C#m         A              B
e|-- -- -------------------------------------|
B|--(10)--9--7--------7--9--7-----7----------|
G|-- -- --------9--9-----------9-----9--8----|
D|-- -- -------------------------------------|
A|-- -- -------------------------------------|
E|-- -- -------------------------------------|

 C#m          A             C#m 
Se ke nunca voi a estar kontigo.
          A         C#m         A              B
Y jamás serás el abrigo ke me kubra de este frío.
 C#m          A             C#m
Se ke ya no puedo ser tu amigo.
          A          C#m          A          B
Y aunke tome otro camino nunka evitaré el dolor . 
MI animo... 

E          G#m               A       C#m-B
Porqué no puedo cumplir mis sueños. 
 E          G#m               A       C#m-B
Porque se rompen mis sentimientos. 
 E          G#m               A     B      E
Por qué no puedo cumplir mi sueño junto a vos?

(C)  E         G#m           A           B
e|-------------- -- ------------------------|
B|--9--7--9--7-- -- ---9--7--9--7-----7-----|
G|-------------- -- ---------------9-----8--|
D|--------------(10)------------------------|
A|-------------- -- ------------------------|
E|-------------- -- ------------------------|
     E         G#m           A           B
e|-------------- -- ------------------------|
B|--9--7--9--7-- -- ---9--7--9--7-----7-----|
G|-------------- -- ---------------9-----8--|
D|--------------(10)------------------------|
A|-------------- -- ------------------------|
E|-------------- -- ------------------------|
     C#m          A             C#m 
e|--------------9--9--7--7-- -- -- -- --7-----------|
B|--9--7-----7--------------(10)--(10)-----(10)--9--|
G|--------9----------------- -- -- -- --------------|
D|-------------------------- -- -- -- --------------|
A|-------------------------- -- -- -- --------------|
E|-------------------------- -- -- -- --------------|
     A         C#m         A              B
e|-- -- -------------------------------------|
B|--(10)--9--7--------7--9--7-----7----------|
G|-- -- --------9--9-----------9-----9--8----|
D|-- -- -------------------------------------|
A|-- -- -------------------------------------|
E|-- -- -------------------------------------|
(C)  E         G#m           A           B
e|-------------- -- ------------------------|
B|--9--7--9--7-- -- ---9--7--9--7-----7-----|
G|-------------- -- ---------------9-----8--|
D|--------------(10)------------------------|
A|-------------- -- ------------------------|
E|-------------- -- ------------------------|
     E         G#m           A           B
e|-------------- -- ------------------------|
B|--9--7--9--7-- -- ---9--7--9--7-----7-----|
G|-------------- -- ---------------9-----8--|
D|--------------(10)------------------------|
A|-------------- -- ------------------------|
E|-------------- -- ------------------------|
     C#m          A             C#m 
e|--------------9--9--7--7-- -- -- -- --7-----------|
B|--9--7-----7--------------(10)--(10)-----(10)--9--|
G|--------9----------------- -- -- -- --------------|
D|-------------------------- -- -- -- --------------|
A|-------------------------- -- -- -- --------------|
E|-------------------------- -- -- -- --------------|
     A         C#m         A              B
e|-- -- -------------------------------------|
B|--(10)--9--7--------7--9--7-----7----------|
G|-- -- --------9--9-----------9-----9--8----|
D|-- -- -------------------------------------|
A|-- -- -------------------------------------|
E|-- -- -------------------------------------|
Suggest correction
Give kudos to tab author, rate the tab!
1 2 3 4 5
comments
print report bad tab
guest
Wanna post a correction for this tab? Suggest correction