Oops, an error
Loading. Please wait.

Intento Tab

version 2
version 2

Whole song

by Smitten
5 views 1 this week
no commentswrite comment
1 2 3 4 5
3 more votes to show rating
add to favorites
launch autoscroll
font size
0
reset
how to read this tab
guitar tuner
×
Best way to learn
"Intento"
Autoscroll
slow
fast
+/-
esc
set tempo
stop
Solos de Smitten - Intento
   =[tabbed by jdcm]=

Aca les pongo solo los punteos, no los acordes ni las letras.
Esto no pretende ser un tab completo, sino solo un complemento 
a los demas tabs que puedan encontrar por ahi
El SOLO lo saque con una sola cuerda y bastante 'naked' ustedes 
ponganle los Slides y desdoblenlo a su gusto usando otras cuerdas 
(pero las mismas notas: con la afinacion normal el tab esta perfecto, 
esta en ustedes la interpretacion)


INTRO:

e |--[12]----12----[12]----12----[12]----12-----12--11--9--11---|
B |-------12----12------12----12------12----12------------------|
G |-------------------------------------------------------------|
D |-------------------------------------------------------------|
A |-------------------------------------------------------------|
E |-------------------------------------------------------------|


SOLO:

e |--16--14--16--14--8~-----16--14--16--14--12--14--12--11--|
B |---------------------------------------------------------|
G |---------------------------------------------------------|
D |---------------------------------------------------------|
A |---------------------------------------------------------|
E |---------------------------------------------------------|

e |--16--14--16--14--8~-----16--14--16--14--12--14--12--11--|
B |---------------------------------------------------------|
G |---------------------------------------------------------|
D |---------------------------------------------------------|
A |---------------------------------------------------------|
E |---------------------------------------------------------|

e |--16--14--12--14--21~------21-21--19-19--17-17-----------|
B |---------------------------------------------------------|
G |---------------------------------------------------------|
D |---------------------------------------------------------|
A |---------------------------------------------------------|
E |---------------------------------------------------------|


e |--19-17-16--16-16-17-16--14--12-12--14--16--14--12--14--12-11--|
B |---------------------------------------------------------------|
G |---------------------------------------------------------------|
D |---------------------------------------------------------------|
A |---------------------------------------------------------------|
E |---------------------------------------------------------------|


------------------------=====================------------------------
                         jdcm182@
------------------------=====================------------------------
Tabs subidos hasta la fecha de publicacion:

- CADENA PERPETUA - SIGO ACA
- WDK - CIUDAD CENTRAL
- WDK - QUE NECESITAS?
- EL OTRO YO - INMADURO
- SMITTEN - INTENTO

------------------------=====================------------------------
Suggest correction
Give kudos to tab author, rate the tab!
1 2 3 4 5
comments
print report bad tab
guest
You may want to rate the tab now too:
select rating
Wanna post a correction for this tab? Suggest correction