Oops, an error
Loading. Please wait.

My Mother Tab

23 views 1 this week
no commentswrite comment
1 2 3 4 5
3 more votes to show rating
add to favorites
launch autoscroll
font size
0
reset
how to read this tab
guitar tuner
×
Best way to learn
"My Mother"
Autoscroll
slow
fast
+/-
esc
set tempo
stop
          B                  D#m
Ella partió de aquí, no volverá jamás,
         G#m         C#
yo esperaré aquí llorando,
          B                       D#m
y no comprendo aún por que esto fue así,
         G#m               C#
ella no pudo disfrutar de mí.

            B5            C#5          D#5         F#5
¿Y quien sabrá porque a veces lo que amamos se nos va?
            B5               C#5       D#5        F#5
¿Y quien sabrá por que el destino nos ataca al llegar?,
       B5              C#5        D#5     C#5  D#5  C#5
disfrutas de algo un poco y al momento se te va,
B5                     C#5
sé que estas en paz allí.
            B                      D#m
vive un recuerdo en mi, con él yo moriré,
         G#m       C#               B
ella me enseñó la vida y aunque sienta dolor,
         D#m                    G#m        C#
no volveré a gritar, a ella la veo aún en sueños.

            B5           C#5          D#5          F#5
¿Y quien sabrá porque a veces lo que amamos se nos va?
            B5               C#5        D#5        F#5
¿Y quien sabrá por que el destino nos ataca al llegar?,
       B5            C#5        D#5    C#5  D#5  C#5
disfrutas de algo un poco y al momento se te va,
B5                    C#5
sé que estas en paz allí.

SOLO:
E:----------------------------------------------------------------------|
B:--7----9-7----7----------7---7-----------------7-------------7---7----|
G:----------------8----8-8---8---6------6-8-8/10------8----8-8---8---6--|
D:------------------------------------8---------------------------------|
A:----------------------------------------------------------------------|
E:----------------------------------------------------------------------|

            B5
¿Y quien sabrá porque a veces lo que amamos se nos va?
            B5
¿Y quien sabrá por que el destino nos ataca al llegar?,
       B5             C#5        D#5   C#5  D#5  C#5
disfrutas de algo un poco y al momento se te va,
B5                    C#5
sé que estas en paz allí.

E:--------------------------|
B:--------------------------|
G:--------------------------|
D:--9/3---8/3---6/3---4/3---|  x2
A:--9/3---8/3---6/3---4/3---|
E:--7/1---6/1---4/1---2/1---|

    B/F  A#/F  G#/F  F#/F

B-F#m-D#m-C#

B-F#m-D#m-C#

B

E:--------|
B:--------|
G:--------|
D:--9/3---|
A:--9/3---|
E:--7/1---|

    B/F

Aclaracióm: / slide

AGUANTE SMITTEN!
Suggest correction
Give kudos to tab author, rate the tab!
1 2 3 4 5
comments
print report bad tab
guest
You may want to rate the tab now too:
select rating
Wanna post a correction for this tab? Suggest correction