Oops, an error
Loading. Please wait.

No Tanto Como Ayer Tab

by Smitten
38 views 1 this week
no commentswrite comment
1 2 3 4 5
3 more votes to show rating
add to favorites
launch autoscroll
font size
0
reset
how to read this tab
guitar tuner
×
Best way to learn
"No Tanto Como Ayer"
Autoscroll
slow
fast
+/-
esc
set tempo
stop
Intro: Gm C9- Bmm Cm D7add11 (x2)


e|-------------------------------------------------------
B|---12-13-15-15/--12-13-12------------------12-13-15-15-
G|-12----------------------12--------------12------------
D|---------------------------12h14-12h14-12--------------

-15(X6)-14-12----------------------------------
--------------15-13-12-12h13-12-----------------
-----------------------------------------------
-------------------------------12h14-12h14-12---


G         C9           Bm     C         D7add11
Sabes igual te extraño más, no tanto como ayer
G          C9          Bm      C          D7add11
Entonces ves, llega el dolor y otro sueño se rompió
G          C9          Bm      C         D7add11
Sabes igual te siento más, no tanto como ayer
G          C9          Bm       C        D7add11
Entonces ves, se va el color y mi sueño termino

Bm     C
Otra tarde sin tu voz
Bm     C
es un sueño menos
Bm    C             D
Otra noche junto a vos

E5       E5/D#       E5/D          D5/C#
Si siempre quise todo lo que vos tenés

e|-12----12----12---14----14----14-----15----15----15-----
B|---12----12----12---12----12----12-----12----12----12---
G|-----12----12---------12----12----12-----12----12----12-

       C            Cm
se que nada amor de ti recibiré


SOLO:

e|-3--5-7-3(x6)-3-2------------3-3--5-7-3--10(x8)-
B|-3---------------3--4-5-7-5-4--3----------------
G|-4-----------------------------4----------------
D|-5-----------------------------5----------------
A|------------------------------------------------
E|------------------------------------------------

-10-10-8-7-5-3-3h5-3-
---------------------
---------------------
---------------------
---------------------
---------------------


Bm     C
Otra tarde sin tu voz
Bm      C
es un sueño menos
Bm       C         D
Otra noche junto a vos

E5       E5/D#        E5/D        D5/C#
Si siempre quise todo lo que vos tenés
       C            Cm
se que nada amor de ti recibiré

G        C9            Bm
Sabes igual te extraño más
   C       D7add11
No tanto como ayer
G         C9          Bm
Entonces ves, se va el dolor
   C       D7add11
y mi sueño termino

Bm     C
Otra tarde sin tu voz
Bm      C
es un sueño menos
Bm       C          D
otra noche junto a vos.
Suggest correction
Give kudos to tab author, rate the tab!
1 2 3 4 5
comments
print report bad tab
guest
You may want to rate the tab now too:
select rating
Wanna post a correction for this tab? Suggest correction