Oops, an error
Loading. Please wait.

Para No Volver Chords

5 views 1 this week
no commentswrite comment
1 2 3 4 5
3 more votes to show rating
add to favorites
launch autoscroll
font size
0
reset
transpose
0
reset
display chords
guitar tuner
Autoscroll
slow
fast
+/-
esc
set tempo
stop
Help us to improve Ultimate-Guitar.com Take our survey!
×
Las notas de este tema están sacados en 5ta.

intro
E||----------------------|----------------------|
B||----------------------|----------------------|
G||--------666---888-----|--666-----------------|
D||---999----------------|-------999------------|
A||--777--777---777------|-777--777-------------|
E||----------------------|----------------------|

Intro)
Esta bien no se bien que decir
Lo que hice fue tan tonto
                                E*
Tal vez quede tiempo para descubrir
Que el problema no era falta de amor
Dos sonidos que se mezclan
Melodías que no saben de reír
Y mi mundo solo llega hasta vos
Porque se que voy cambiando
Y con eso lo que quiero es ser asi

 A                     B
Y estar en esta vida tan juntos
     A                            B
Como dos estrellas que se escapan de rumbo
           E*
Para no volver
para no volver

E*
lo de siempre y lo de nunca mi amor
no es difícil de que entiendas
para que cambiar el mundo si es asi
y mi rumbo solo llega hasta vos
porque se que voy cambiando
y con es lo que quiero es ser feliz

A                    B
y estar en esta vida tan juntos
    A                            B
como dos extraños que se ríen del mundo
          E    C#    E    C#   B
como si fueras mia siempre lista estas
  A                                        B
en todos los momentos que sabemos que podemos viajar
           E*
para no volver

para no volver

punteo
E||----------------------|----------------------|----------------------|
B||----12--10------------|-----s14---12---------|----------------------|
G||-s9---------s8--------|--8-------------------|----------------------|
D||----------------------|-----------------9----|-9----9--11--13--11--9|
A||----------------------|----------------------|---11-----------------|
E||----------------------|----------------------|----------------------|

----------------------|
----------------------|
--9--8----------------|
--------9-------------|
----------------------|
----------------------|


y estar en esta vida tan juntos
como dos extraños que se ríen del mundo

como si fueras mia siempre lista estas
en todos los momentos que sabemos que podemos viajar
para no volver
para no volver?

Mi* se mantiene todo ese parrafo con MI , intenten hacer
MI 5ta acompañandolo con las notas de la intro.
BUENO ESTE TEMA HERMOSO ES DEL ULTIMO ALBUN DE
SMITTEN?ESPERO QUE LES GUSTE Y PARA  ALGUNA CONSULTA
O CRIRCA NO DUDEN EN ESCRIBIRME. Esta  rola se lo dedico a
GLA miamor,,, a Pitu,,,Paosonicos,,,Eli,,,y a CHAI..
AGUANTE S..M..I..T..T..E..N?
Suggest correction
Give kudos to tab author, rate the tab!
1 2 3 4 5
comments
print report bad tab
guest
You may want to rate the tab now too:
select rating
Wanna post a correction for this tab? Suggest correction