Oops, an error
Loading. Please wait.

Perder La Fe Tab

version 1
version 1

Whole song

Interactive

2 views 1 this week
no commentswrite comment
1 2 3 4 5
3 more votes to show rating
add to favorites
launch autoscroll
font size
0
reset
how to read this tab
guitar tuner
Autoscroll
slow
fast
+/-
esc
set tempo
stop
Help us to improve Ultimate-Guitar.com Take our survey!
×
Vá envió esta transcripcion porque
me gusta esta cancion jijiji y pòrque
estaba media fea la anterior transcripcion
en fin... esta cancion para quienes pierden la fe... =(

Simbologia:
Pm....... (todo lo q este abajo del Pm es
          palm mute y significa que las cuerdas no
           deben sonar, este efecto lo asen
           sobreponiendo los dedos en la cuerda y no
            presionarlos)
/ .- Slide (Desliza tu dedo del traste "x"
            al traste "y")
b? .- Bend full (Estira la cuerda mucho xD )
~ .- Vibrato (Deja sonar mientras mueves ligeramente
              tu dedo sobre el traste.)
Intro:
e|---------------------------------5/6-5--------------|
B|-8-------8--6-------6--7-------7--------8-------8---|
G|---7---7------7---7------7---7-?----------7---7-----|x2
D|-----9----------9----------9----------------9-------|
A|----------------------------------------------------|
E|----------------------------------------------------|
Versos
e|----------------------------------------|
B|----------------------------------------|
G|------------------------------?---------|
D|---------------3-3-------7-7------------|
A|-5-5-----------1-1-------5-5-------5-5--|
E|-3-3-------------------------------3-3--|
      Volvió sin rumbo intentando olvidar

e|----------------------------------------|
B|----------------------------------------|
G|------------------------------?---------|
D|---------------3-3-------7-7------------|
A|-5-5-----------1-1-------5-5-------5-5--|
E|-3-3-------------------------------3-3--|
       La pesadilla que vivió sin despertar.

e|------------------------------------------------------------------|
B|------------------------------------------------------------------|
G|-----------------3---3---3--?3---7---7---7---7--------------------|
D|-5---5---5---5---3-3-3-3-3-3-3-3-7-7-7-7-7-7-7-7-5---5---5---5----|
A|-5-5-5-5-5-5-5-5-1-1-1-1-1-1-1-1-5-5-5-5-5-5-5-5-3-3-3-3-3-3-3-3--|
E|-3-3-3-3-3-3-3-3---------------------------------3-3-3-3-3-3-3-3--|
pm?????????????????????????????????????????????????????????????????
   Volvió          cargando la      gran  pena de pensar.

e|------------------------------------------------------------------|
B|------------------------------------------------------------------|
G|-----------------3---3---3--?3---7---7---7---7--------------------|
D|-5---5---5---5---3-3-3-3-3-3-3-3-7-7-7-7-7-7-7-7-5---5---5---5----|
A|-5-5-5-5-5-5-5-5-1-1-1-1-1-1-1-1-5-5-5-5-5-5-5-5-3-3-3-3-3-3-3-3--|
E|-3-3-3-3-3-3-3-3---------------------------------3-3-3-3-3-3-3-3--|
pm?????????????????????????????????????????????????????????????????
   Que desde       ahora ya        nada sería      igual.

Coro:
e|------------------------------------------------------------------|
B|------------------------------------------------------------------|
G|-------------------------?----------------------------------------|
D|-3-3-3-3-3-3-3-3-8-8-8-8-8-8-8-8-3-3-3-3-3-3-3-3-8-8-8-8-8-8-8-8--|
A|-1-1-1-1-1-1-1-1-6-6-6-6-6-6-6-6-1-1-1-1-1-1-1-1-6-6-6-6-6-6-6-6--|
E|------------------------------------------------------------------|
      Porque       vivió    tristezas   Porque   vivió    miserias

e|-------------------------------------------------------------------|
B|-------------------------------------------------------------------|
G|-------------------------?-----------------------------------------|
D|---------------------------------8-8-8-8-8-8-8-8-------------------|
A|-5-5-5-5-5-5-5-5-3-3-3-3-3-3-3-3-6-6-6-6-6-6-6-6-3-3-3-3-3-3-3-3---|
E|-3-3-3-3-3-3-3-3-1-1-1-1-1-1-1-1-----------------1-1-1-1-1-1-1-1---|
    Y es que  hoy  nada puede haceeeeeeeeeeeeeeer

e|---------------------------------5/6-5--------------|
B|-8-------8--6-------6--7-------7--------8-------8---|
G|---7---7------7---7------7---7-?----------7---7-----|x2
D|-----9----------9----------9----------------9-------|
A|----------------------------------------------------|
E|----------------------------------------------------|

e|----------------------------------------|
B|----------------------------------------|
G|------------------------------?---------|
D|---------------3-3-------7-7------------|
A|-5-5-----------1-1-------5-5-------5-5--|
E|-3-3-------------------------------3-3--|
      Buscó      ayuda sin poderla encontrar.

e|----------------------------------------|
B|----------------------------------------|
G|------------------------------?---------|
D|---------------3-3-------7-7------------|
A|-5-5-----------1-1-------5-5-------5-5--|
E|-3-3-------------------------------3-3--|
     Vivió un romance con la dura soledad.

e|------------------------------------------------------------------|
B|------------------------------------------------------------------|
G|-----------------3---3---3--?3---7---7---7---7--------------------|
D|-5---5---5---5---3-3-3-3-3-3-3-3-7-7-7-7-7-7-7-7-5---5---5---5----|
A|-5-5-5-5-5-5-5-5-1-1-1-1-1-1-1-1-5-5-5-5-5-5-5-5-3-3-3-3-3-3-3-3--|
E|-3-3-3-3-3-3-3-3---------------------------------3-3-3-3-3-3-3-3--|
pm?????????????????????????????????????????????????????????????????
   Lloró          recuerdos                imposibles de olvidar.

e|------------------------------------------------------------------|
B|------------------------------------------------------------------|
G|-----------------3---3---3--?3---7---7---7---7--------------------|
D|-5---5---5---5---3-3-3-3-3-3-3-3-7-7-7-7-7-7-7-7-5---5---5---5----|
A|-5-5-5-5-5-5-5-5-1-1-1-1-1-1-1-1-5-5-5-5-5-5-5-5-3-3-3-3-3-3-3-3--|
E|-3-3-3-3-3-3-3-3---------------------------------3-3-3-3-3-3-3-3--|
pm?????????????????????????????????????????????????????????????????
    Y lleva        heridas que ya no               van a sanar.

Coro:
e|------------------------------------------------------------------|
B|------------------------------------------------------------------|
G|-------------------------?----------------------------------------|
D|-3-3-3-3-3-3-3-3-8-8-8-8-8-8-8-8-3-3-3-3-3-3-3-3-8-8-8-8-8-8-8-8--|
A|-1-1-1-1-1-1-1-1-6-6-6-6-6-6-6-6-1-1-1-1-1-1-1-1-6-6-6-6-6-6-6-6--|
E|------------------------------------------------------------------|
      Porque       vivió    tristezas   Porque   vivió    miserias

e|-------------------------------------------------------------------|
B|-------------------------------------------------------------------|
G|-------------------------?-----------------------------------------|
D|---------------------------------8-8-8-8-8-8-8-8-------------------|
A|-5-5-5-5-5-5-5-5-3-3-3-3-3-3-3-3-6-6-6-6-6-6-6-6-3-3-3-3-3-3-3-3---|
E|-3-3-3-3-3-3-3-3-1-1-1-1-1-1-1-1-----------------1-1-1-1-1-1-1-1---|
    Y es que  hoy  nada puede haceeeeeeeeeeeeeeeeeeeer

e|------------------------------------------------------------------|
B|------------------------------------------------------------------|
G|-------------------------?----------------------------------------|
D|-3-3-3-3-3-3-3-3-8-8-8-8-8-8-8-8-3-3-3-3-3-3-3-3-8-8-8-8-8-8-8-8--|
A|-1-1-1-1-1-1-1-1-6-6-6-6-6-6-6-6-1-1-1-1-1-1-1-1-6-6-6-6-6-6-6-6--|
E|------------------------------------------------------------------|
      Porque       vivió    violencia  porque    gano    pobreza.

e|-------------------------------------------------------------------|
B|-------------------------------------------------------------------|
G|-------------------------?-----------------------------------------|
D|---------------------------------8-8-8-8-8-8-8-8-------------------|
A|-5-5-5-5-5-5-5-5-3-3-3-3-3-3-3-3-6-6-6-6-6-6-6-6-3-3-3-3-3-3-3-3---|
E|-3-3-3-3-3-3-3-3-1-1-1-1-1-1-1-1-----------------1-1-1-1-1-1-1-1---|
     Y acaba  de  perder   la   feeeeeeeeeeeeeeeeeeeee.

Solo

e|----------------|--------------|------------|------------|
B|----------------|-8------------|----------8-|------------|
G|--7--7-7-7--7-7-|----10--8--10-|-7--7--7----|-10--8--10~-|
D|----------------|--------------|------------|------------|
A|----------------|--------------|------------|------------|
E|----------------|--------------|------------|------------|

e|------------|-------------|-----------------|------------------|
B|----------8-|-------------|-----------------|------------------|
G|-7--7--7----|-7------7----|-----?---------7-|------7--8---7~---|
D|------------|----10-----8-|-7-8-10---8-10---|-8-10-------------|
A|------------|-------------|-----------------|------------------|
E|------------|-------------|-----------------|------------------|

e|--------------------|---------------|---------------|
B|--------------------|---------------|---------------|
G|-----7--------------|-------?-------|--------7~~----|
D|-10-----8--10-8-7~~-|----8--7-8-10~-|---8-10--------|
A|--------------------|---------------|---------------|
E|--------------------|---------------|---------------|

e|------------------|----------|
B|------------------|-----8b?~--|
G|------------------|-------?--|
D|-8-10---12--10--9-|-8--------|
A|------------------|----------|
E|------------------|----------|

e|------------------------------------------------------------------|
B|------------------------------------------------------------------|
G|-------------------------?----------------------------------------|
D|-3-3-3-3-3-3-3-3-8-8-8-8-8-8-8-8-3-3-3-3-3-3-3-3-8-8-8-8-8-8-8-8--|
A|-1-1-1-1-1-1-1-1-6-6-6-6-6-6-6-6-1-1-1-1-1-1-1-1-6-6-6-6-6-6-6-6--|
E|------------------------------------------------------------------|
      Porque       vivió    tristezas  porque   vivió  violencia.

e|-------------------------------------------------------------------|
B|-------------------------------------------------------------------|
G|-------------------------?-----------------------------------------|
D|---------------------------------8-8-8-8-8-8-8-8-------------------|
A|-5-5-5-5-5-5-5-5-3-3-3-3-3-3-3-3-6-6-6-6-6-6-6-6-3-3-3-3-3-3-3-3---|
E|-3-3-3-3-3-3-3-3-1-1-1-1-1-1-1-1-----------------1-1-1-1-1-1-1-1---|
     Y acaba  de  perder   la   feeeeeeeeeeeeeeeeeeeee.

e|------------------------------------------------------------------|
B|------------------------------------------------------------------|
G|-------------------------?----------------------------------------|
D|-3-3-3-3-3-3-3-3-8-8-8-8-8-8-8-8-3-3-3-3-3-3-3-3-8-8-8-8-8-8-8-8--|
A|-1-1-1-1-1-1-1-1-6-6-6-6-6-6-6-6-1-1-1-1-1-1-1-1-6-6-6-6-6-6-6-6--|
E|------------------------------------------------------------------|
pm?????????????????????????????????????????????????????????????????
   Porque        vivió una   guerra  Porque su alma es pena

e|-----------------------------------------------------------|
B|-----------------------------------------------------------|
G|-------------------------?---------------------------------|
D|------------------------------------------------------3~~--|
A|-5-5-5-5-5-5-5-5-3-3-3-3-3-3-3-3--3--3--3--3--3---3---1~~--|
E|-3-3-3-3-3-3-3-3-1-1-1-1-1-1-1-1--1--1--1--1--1---1--------|
pm????????????????????????????????????????????????????
    Porque ya  ha    pasado  el  treeeeeeeeeeeeeeeeen.
Suggest correction
Give kudos to tab author, rate the tab!
1 2 3 4 5
comments
print report bad tab
guest
You may want to rate the tab now too:
select rating
Wanna post a correction for this tab? Suggest correction