Oops, an error
Loading. Please wait.

Perdido Tab

version 1
version 1

Whole song

18 views 1 this week
no commentswrite comment
1 2 3 4 5
3 more votes to show rating
add to favorites
launch autoscroll
font size
0
reset
how to read this tab
guitar tuner
×
Best way to learn
"Perdido"
Autoscroll
slow
fast
+/-
esc
set tempo
stop
E------------------|---------------|---------------|---------------|
A------------------|---------------|---------------|---------------|
D---2--------------|---3-----------|---4-----------|--0------------|
G------2-----2-----|------2-----2--|------2-----2--|-------------2-|
B---------2--------|---------2-----|---------2-----|------2(3)2----|
e------------------|---------------|---------------|---------------|
   Estoy          perdido aquí         tú         reflejo en la pared


E------------------|---------------|---------------|---------------|
A------------------|---------------|---------------|---------------|
D---2--------------|---3-----------|---4-----------|--5------------|
G------2-----2-----|------2-----2--|------2-----2--|------2------2-|
B---------2--------|---------2-----|---------2-----|---------2-----|
e------------------|---------------|---------------|---------------|     D
 estoy             buscándome           en un         sitio en que no estés


D       A   C#7 F#m
 tan segura como antes
D        A          C#7 F#m
 tan confusa por lo que pasó
D         A       C#7    F#m
 en tus ojos un pequeño olvido
     Bm
que nace en mi
     Dm
que muere en el dolor


Estoy perdido aquí

entre sitios que olvidé

estoy ahogándome

en el mar de nuestro ayer
D       A           C#7  F#m
 Sin saber por que, todo cambia
D        A        C#7   F#m
 y lo absurdo se hace real
D        A          C#7        F#m
 de tus manos se escapó la ilusión
     Bm             Dm
que nace en mi que muere en este adiós...


El C#7 queda mas sutil de la siguiente forma..
    2     3     4
E|-----|-----|-----X
A|-----|-----|--o--|
D|-----|--o--|-----|
G|-----|-----|--o--|
B|--o--|-----|-----|
e|-----|-----|-----X

Acá va transcripta para  Forever Child que lo mira por youtube jajaa!!!
Suggest correction
Give kudos to tab author, rate the tab!
1 2 3 4 5
comments
print report bad tab
guest
You may want to rate the tab now too:
select rating
Wanna post a correction for this tab? Suggest correction