Oops, an error
Loading. Please wait.

Perdido Tab

version 2
version 2

Whole song

by Smitten
46 views 1 this week
no commentswrite comment
1 2 3 4 5
3 more votes to show rating
add to favorites
×
Save as Personal and add changes to this tab that will be seen only by you. Learn more ›
×
You can save this tab as Personal to edit and correct it or add notes. All changes will be seen only by you. Learn more »
save as personal
new!
launch autoscroll
font size
0
reset
how to read this tab
guitar tuner
Autoscroll
slow
fast
+/-
esc
set tempo
stop
Hola, dejo esta hermosa y triste cancion.
se la dedico a aquel amor pedido que jamas recuperare.

INTRO: RIFF
E---------------------------------------
B-------2-------2-------2-----2-3-2-----
G-----2---2---2---2---2---2---------2---
D---2-------3-------4-------3-----------
A---------------------------------------
E---------------------------------------

(Con riff de intro)
 Estoy perdido aquí, tu reflejo en la pared,
                                            D
 Estoy buscándome, en un sitio en que no estés.
        A   C#m  F#m   D        A          C#m   F#m
 Tan segura como antes, tan confusa por lo que paso,
D       A         C#m     F#m
 En tus ojos un pequeño olvido,
      D                Dm
 Que nace en mí, que muere en el dolor.

INTER: RIFF

(Con riff de intro)
 Estoy perdido aquí, entre sitios que olvidé,
                                          D
 Estoy ahogándome, en el mar de nuestro ayer,
        A         C#m  F#m   D         A         C#m F#m
 Sin saber porque todo cambia, y lo absurdo se hace real,
D        A        C#m       F#m
 De tus manos escapó la ilusión,
      D                Dm
 Que nace en mí, que muere en este adiós.

SOLO
E----------------------------------------------------
B---2/10~~--10/2~------2/10~-12~-/14~-12~-10~--10~---
G------------------2~--------------------------------
D----------------------------------------------------
A----------------------------------------------------
E----------------------------------------------------

E-------------------------------------------------------------------
B---10~-/15~-14~-10~-10^(12)r~----2/10~-12~-/14~-12~-10~----2/10~---
G-------------------------------------------------------------------
D-------------------------------------------------------------------
A-------------------------------------------------------------------
E-------------------------------------------------------------------

E-----------------------------------------
B---15-14-12~-14~--15-14-12-14-10~-9~-----
G-----------------------------------------
D-----------------------------------------
A-----------------------------------------
E-----------------------------------------

E--------------------------------------------
B---15~-14~-10~--15~-14~-10~-10^(12)r~-10~---
G--------------------------------------------
D--------------------------------------------
A--------------------------------------------
E--------------------------------------------

(Con riff de intro)
 Estoy perdido aquí, un camino encontraré,
 Estoy perdido en ti, pero pronto olvidaré.

/ arrastre
~ vibrato
^(12)r~ estira hasta conseguir el tono entre parentesis y vuelve.
Suggest correction
Give kudos to tab author, rate the tab!
1 2 3 4 5
comments
print report bad tab
guest
Wanna post a correction for this tab? Suggest correction