Oops, an error
Loading. Please wait.

Perdonar Bass Tab

163 views 1 this week
no commentswrite comment
1 2 3 4 5
please rate
add to favorites
launch autoscroll
font size
0
reset
guitar tuner
Autoscroll
slow
fast
+/-
esc
set tempo
stop
Help us to improve Ultimate-Guitar.com Take our survey!
×
Difficulty
intermediate
-------------------------------------------------------------------------------
			     PERDONAR - Smitten
-------------------------------------------------------------------------------

Tabbed By : Ricardo Barros, thanks to Wesley da Silva.
e-mail: unavoidablemotions@gmail.com

Tuning: Standard


Verse

G|----------------------|
D|----------------------|
A|-----1----------5-----|
E|---------1---5--------|


Chorus

G|----------------------|
D|----------------------|
A|---1--8-7-5-4-8---8---|
E|----------------8-----|


Outro

G|----------------------------------------------------------------|
D|----------------------------------------------------------------|
A|---1/4---------1/4--------5-4-3-2-1---1/4---1---1--3------------|
E|--------1--3----------1-5---------------------3-------1---/13---|




| /  slide up
| \  slide down
| h  hammer-on
| p  pull-off
| ~  vibrato
| +  harmonic
| x  Mute note
===============================================================================
Suggest correction
What's this?
You can suggest a correction to this tab. Community and Mods will review your correction and vote to approve or reject it.
comments
We did not receive enough feedback on this tab! Please rate:
print report bad tab
1 2 3 4 5
guest
You may want to rate the tab now too:
select rating
Please do not post tabs as comments. Select "correction" instead!