Oops, an error
Loading. Please wait.

Problemas Tab

5 views 1 this week
no commentswrite comment
1 2 3 4 5
3 more votes to show rating
add to favorites
launch autoscroll
font size
0
reset
how to read this tab
guitar tuner
×
Best way to learn
"Problemas"
Autoscroll
slow
fast
+/-
esc
set tempo
stop
INTRO:
TODA LA CANCION CON ACORDES DE 5TA:

RE                  LA                SOL              SOL   LA   RE
E-------------------5-----------------3-----------------3-----5-----------
B--5-------------------7----------------5-----------------5-----7---5-----
G----7-x 2 -5-7-5------7-X 2---5-7-5----5-X 2---5-7-5-----5-----7-----7---
D----7----------------------------------------------------------------7---
A-------------------------------------------------------------------------
e----------------------------------------------------------


 RE                  LA                SOL              SOL   LA   RE
E-------------------5-----------------3-----------------3-----5-----------
B--5-------------------7----------------5-----------------5-----7---5-----
G----7-x 2 -5-7-5------7-X 2---5-7-5----5-X 2---5-7-5-----5-----7-----7----
D----7----------------------------------------------------------------7----
A-------------------------------------------------------------------------
e-----------------------------------------------------------


RE                   LA      SOL         LA
Angustias , tristezas , ya nada tiene respuestas
RE                   LA     SOL         LA
Impuestos  , miseria   , la vida es un gran problema
RE                   LA      SOL        LA
Gobiernos , sistemas , ya nada para la pena
RE                   LA       SOL      LA (sonando)
Pobreza , iglesias y todo sigue igual

                      RE  LA  SOL               LA
La vida es un problemaaaaaaaa  de difícil solución
                       MI      LA          SOL            LA
Mi vida es un problema ( problema ) , que no tiene explicación oOh?


RE                  LA                SOL              SOL   LA   RE
e-------------------5-----------------3-----------------3-----5-----------
A--5-------------------7----------------5-----------------5-----7---5-----
D----7-x 2 -5-7-5------7-X 2---5-7-5----5-X 2---5-7-5-----5-----7-----7---
G----7----------------------------------------------------------------7---
B-------------------------------------------------------------------------
E-------------------------------------------------------------------------


 RE                  LA                SOL              SOL   LA   RE
e-------------------5-----------------3-----------------3-----5-----------
A--5-------------------7----------------5-----------------5-----7---5-----
D----7-x 2 -5-7-5------7-X 2---5-7-5----5-X 2---5-7-5-----5-----7-----7----
G----7----------------------------------------------------------------7----
B-------------------------------------------------------------------------
E-------------------------------------------------------------------------


RE                   LA     SOL           LA
Indultos , tragedias ,  ya no existen las promesas
RE                   LA     SOL           LA
Secuestros , condenas , la vida es una novela
RE                   LA   SOL            LA
Progreso ,  protestas  ,  ya nada tiene respuestas
RE                   LA    SOL           LA
Amores , enemas , todo va para atrás

                    RE     LA    SOL  LA
La vida es un problema , de difícil solución
                       MI     LA        SOL    LA
Vivimos  un problema   ( problema ) , que no tiene explicación
                       RE     LA    SOL       LA
La vida es un problema , de difícil solución
                    MI    LA       SOL         LA
Vivir es un problema ( problema ) , pero no hay comparación

(  RE   -  LA -  SOL  - LA   )       x 4


                       RE     LA    SOL       LA
La vida es un problema , de difícil solución
                       MI                LA      SOL   LA
Vivimos  un problema   ( problema ) , que no tiene explicación
                       RE     LA    SOL               LA
La vida es un problema , de difícil solución
                    MI                LA        SOL     LA
Vivir es un problema ( problema ) , pero no hay comparación


RE  LA   SOL  LA
El problema esta en voooooos.. x 3

Fin

Aguante smitten , attaque 77 y rosario?..
Suggest correction
Give kudos to tab author, rate the tab!
1 2 3 4 5
comments
print report bad tab
guest
You may want to rate the tab now too:
select rating
Wanna post a correction for this tab? Suggest correction