Oops, an error
Loading. Please wait.

Recuerdos Tab

by Smitten
15 views 1 this week
no commentswrite comment
1 2 3 4 5
3 more votes to show rating
add to favorites
launch autoscroll
font size
0
reset
how to read this tab
guitar tuner
Autoscroll
slow
fast
+/-
esc
set tempo
stop
1)
G           C           D
El silencio me esta enloqueciendo
G         C          D
En mi cuarto solo frio siento
 Em    G
Dormire?
         C           D    G
Quiero que pase el dia ya

G  C  D

1)
Pensamiento que llegan de lejos
Asesinan unos cuantos sueños
Em          Em/G
Celos, miedos?
C               D   G         C5      D5 [D5]
Saber que algo anda mal

2)
Em               C5
Vivo obsesionado recordando el pasado
     G5                B5
En el que yo era tan feliz
Em                 G5          C5             D5
Y los dias me enseñaron que la vida ya no es asi
           G
Y aquí estoy?

Base del solo:
G-C-D x2
E-G-D

e----7--7-8-7-5-3-3-2---7--7-8-7-5-3-3-5p3p2---7--7-8-7-5-3-3-2-----
B---------------------------------------------------------------2---
G---7--7---------------7--7-------------------7--7------------------


G5 C5 D5 [D5]


2)
Vivo obsesionado recordando el pasado
En el que yo era tan feliz
Y los dias me enseñaron que la vida ya no es asi

1)
Soy adicto a este sufrimiento
Que me anima y me ve de desecho
Esos dias solo voy a recordar
Siempre voy a recordar
Nunca voy a olvidar?


e--7--7-8-7-5-3-3-2--7--7-8-7-5-3-3-5p3p2--7--7-8-7-5-3-3-2-----|
B-----------------------------------------------------------3---|
G-7--7--------------7--7------------------7--7------------------|


e-8-7-5-3-3-2-----|-8-7-5-3-3-2--3-|
B---------------3-|--------------3-|


[D5]
  v ^ v ^ v
e-----------
B-----------
G-X-X-X-X-X-
D-X-X-X-X-X-
A-X-X-X-X-X-
E-----------

Em/G (Mi menor con bajo el sol eso
es lo que hace significar esa barra)

E-0
B-0
G-0
D-2
A-2
E-3
Suggest correction
Give kudos to tab author, rate the tab!
1 2 3 4 5
comments
print report bad tab
guest
Wanna post a correction for this tab? Suggest correction