Oops, an error
Loading. Please wait.

Suerte Para Dos Tab

version 1
version 1

Whole song

by Smitten
13 views 1 this week
no commentswrite comment
1 2 3 4 5
3 more votes to show rating
add to favorites
launch autoscroll
font size
0
reset
how to read this tab
guitar tuner
×
Best way to learn
"Suerte Para Dos"
Autoscroll
slow
fast
+/-
esc
set tempo
stop
INTRO:
----------------|----------------|----------------------
-2-3-2-0---0-5--|-2-3-2-0---0-5--|-2-3-2-0---0-5-6/7-5--
---------2------|---------2------|---------2------------
----------------|----------------|----------------------
----------------|----------------|----------------------
----------------|----------------|----------------------

A                      C#m
Suerte hoy, tuvimos suerte hoy
             G          F#7           Bm
el mundo estalla y nosotros nos sentimos dos
           A                     C#m
tuvimos suerte hoy, se que fue suerte hoy
          G        F#7            Bm
la noche cae tan vacía y aquí estoy con vos


           A                 G
Y me ponés así y me siento mejor
      D              E             A
y entiendo que esta vez nos encontró


A                      C#m
Tiempo hoy, me sobra tiempo hoy
         G          F#7           Bm
camino solo por las calles, pero junto a vos
              A                       C#m
caigo en tus luces hoy, muero en tus luces hoy
                G        F#7            Bm
y encuentro todo mas cercano en esta suerte para dos


           A                  G
Y me ponés así y me siento mejor
      D              E             A
y entiendo que esta vez nos encontró


A                       E
Para que culparlo al destino
A                             E
si solo somos parte de algún sueño
A                         E            D
y para que mentir que sos mi otra mitad
     E            A                      E
si para mi fue suerte hoy, se que fue suerte hoy
      D            E           A (CON RIFF)
y espero que nos pueda funcionar

RIFF:
------------------|-------10^---------|----------------------
-2/3-2-2/3-2-0----|-7/8-7-------------|-5/7-7-7/8-7-5--------
---------------2--|-------------------|----------------------
------------------|-------------------|----------------------
------------------|-------------------|----------------------
------------------|-------------------|----------------------

SOLO:
------------------|-------------------|----------------------
-2-3-2-0---0-5-5--|-2-3-2-0---0-5-----|-5-7-8-7--3-2---------
---------2--------|---------2---------|--------------2-------
------------------|-------------------|----------------------
------------------|-------------------|----------------------
------------------|-------------------|----------------------


           A                  G
Y me ponés así y me siento mejor
      D              E             A
y entiendo que esta vez nos encontró


A                       E
Para que culparlo al destino
A                             E
si solo somos parte de algún juego
A                     E               D
y para que mentir que soy tu otra mitad
          E       A                      E
si para mi fue suerte hoy, se que fue suerte hoy
      D            E           A  E
y espero que nos pueda funcionar
             A      E
solo fue suerte hoy,
        D            E           A
y espero que nos vuelva a funcionar

---------------------------------------------
Pasen por mi web:


 - 
kasposo@ - ricky.47@
Suggest correction
Give kudos to tab author, rate the tab!
1 2 3 4 5
comments
print report bad tab
guest
You may want to rate the tab now too:
select rating
Wanna post a correction for this tab? Suggest correction