Oops, an error
Loading. Please wait.

Suerte Para Dos Tab

version 2
version 2

Whole song

1 view 1 this week
no commentswrite comment
1 2 3 4 5
3 more votes to show rating
add to favorites
launch autoscroll
font size
0
reset
how to read this tab
guitar tuner
×
Best way to learn
"Suerte Para Dos"
Autoscroll
slow
fast
+/-
esc
set tempo
stop
b : Estire
V : Vibrato
L : Ligado
/ : Arrastre


Usar 5tas si es con distorcion ,

El BAJO Tmb Hace los mismos acordes
Pero el bajo toca las tónicas nomas.


Intro

MI  1|-------------------|--------------------|
SI  2|-------------------|--------------------|
SOL 3|-----6-7-6-------9-|-----6-7-6--------9-|
RE  4|-----------9-7-9---|-----------9-7-9----|
LA  5|-------------------|--------------------|
MI  6|-------------------|--------------------|


----------------------------|
----------------------------|
------6-7-6-------9-9b11-9V-|
------------9-7-9-----------|
----------------------------|
----------------------------|


Acordes De La Intro : La - Sol# - Sol - Fa # - Sim - Re


LA                      DO#m
Suerte hoy, tuvimos suerte hoy
             SOL          FA#7           SIm
el mundo estalla y nosotros nos sentimos dos
           LA                     DO#m
tuvimos suerte hoy, se que fue suerte hoy
          SOL        FA#7            SIm
la noche cae tan vacía y aquí estoy con vos


           LA                 SOL
Y me ponés así y me siento mejor
      RE              MI             LA
y entiendo que esta vez nos encontró


( Ahora el machaque Cambia de Ritmo ,
Pero se mantienen los mismos acordes )

LA                      DO#m
Tiempo hoy, me sobra tiempo hoy
         SOL          FA#7           SIm
camino solo por las calles, pero junto a vos
              LA                       DO#m
caigo en tus luces hoy, muero en tus luces hoy
                SOL        FA#7            SIm
y encuentro todo mas cercano en esta suerte para dos


           LA                  SOL
Y me ponés así y me siento mejor
      RE              MI           LA
y entiendo que esta vez nos encontró


A                       E
Para que culparlo al destino
A                             E
si solo somos parte de algún sueño
A                         E            D
y para que mentir que sos mi otra mitad
     E            A                      E
si para mi fue suerte hoy, se que fue suerte hoy
      D            E           A
y espero que nos pueda funcionar


Base Del Solo  :   Re - Sol - Fa# - Mi ( Las 5tas en 5ta cuerda
asi suenan mas agudo y mas parecido al tema  )

RIFF:
|----------------------|---------------------|
|----------------------|---------------------|
|-------6L7L6-------9--|---9-11/12---11v-----|
|-------------7-9-7----|---------------------|
|----------------------|---------------------|
|----------------------|---------------------|

------------------------|
------------------------|
------6L7L6-------9-----|
------------7-9-7-------|
------------------------|
------------------------|

LA - DO#m - SOL - FA# - SIm ( Haganlo como quieran aca )

SOLO:
|-----------------------|-----------------------|
|-----------------------|-----------------------|
|------6L7L6-------9----|-----6L7L6-------9-----|
|------------7-9-7------|-----------7-9-7-------|
|-----------------------|-----------------------|
|-----------------------|-----------------------|


----------------------------------|
----------------------------------|
-------9--11-12---11v---7--6------|
-----------------------------7v---|
----------------------------------|
----------------------------------|

           LA                SOL
Y me ponés así y me siento mejor
      RE              MI             LA
y entiendo que esta vez nos encontró


LA                       MI
Para que culparlo al destino
LA                             MI
si solo somos parte de algún juego
LA                  MI               RE
y para que mentir que soy tu otra mitad
          MI       LA                      RE
si para mi fue suerte hoy, se que fue suerte hoy
      RE            MI           LA  MI
y espero que nos pueda funcionar
             LA      MI
solo fue suerte hoy,
        RE            MI           LA
y espero que nos vuelva a funcionar


---------------------------------------------


Re-Editado Por Juan Franz
Suggest correction
Give kudos to tab author, rate the tab!
1 2 3 4 5
comments
print report bad tab
guest
You may want to rate the tab now too:
select rating
Wanna post a correction for this tab? Suggest correction