Oops, an error
Loading. Please wait.

Tu Juego Tab

6 views 1 this week
no commentswrite comment
1 2 3 4 5
3 more votes to show rating
add to favorites
launch autoscroll
font size
0
reset
how to read this tab
guitar tuner
×
Best way to learn
"Tu Juego"
Autoscroll
slow
fast
+/-
esc
set tempo
stop
Bueno chicos, éste tab lo saqué a oido,no es 100% correcto pero se
amolda super bien al tema..
Principalmente lo saqué ya que no estaba en ningun lado,y es una
parte importante de este tema asi
que ojala les sirva.
Saludos :)Atte: Luis Montecino :Ñ

Sólo Smitten: tu juego

              MI        SI        LA          MI       SI         DO#m
1 ---------------------------------------------------7--------------
2 ------------9...9-9-9-7....9<°>7------------9<°>10---7^^7-5<°>7-5-
3 --5_______9---------------------9..---9..-------------------------
4 ----------------------------------9------9------------------------
5 ------------------------------------------------------------------
6 ------------------------------------------------------------------

        FA#m            MI      SI
1 -9-12------------------------------------------
2 ------12<14<12--9<°>7--------------------------
3 ----------------------9.-----------------------
4 ------------------------9..---7--9--7-6--------
5 ----------------------------------------7-9-7--
6 -----------------------------------------------

*LOS SIGNOS QUE LE PUSE FUERON PARA PODER GUIAR EL TEMA..EN REALIDAD
 NO SE COMO SE PONEN LOS TIEMPOS EN MUSICA PORQUE SOY NOVATO :)
SIGNOS:
_____ : SUBIR DE TONO SIN SOLTAR LA CUERDA
...   : TIEMPO
<°>   : BAJAR DE UN TONO A OTRO DEJANDO 1 DEDO PUESTO
^^    : EMPUJAR CUERDA CON EL DEDO MEDIO TONO ARRIBA
X<X<X : PASAR DE UN TONO A OTRO MOVIENDO SOLO UN DEDO
Suggest correction
Give kudos to tab author, rate the tab!
1 2 3 4 5
comments
print report bad tab
guest
You may want to rate the tab now too:
select rating
Wanna post a correction for this tab? Suggest correction