Oops, an error
Loading. Please wait.

Un Lugar Bass

by Smitten
8 views 1 this week
no commentswrite comment
1 2 3 4 5
3 more votes to show rating
add to favorites
launch autoscroll
font size
0
reset
guitar tuner
×
Best way to learn
"Un Lugar"
Autoscroll
slow
fast
+/-
esc
set tempo
stop
smitten un lugar
elaborado por Bryan Belliard

Intro

G|----------------------------------------------------------|
D|----------------3-4---------------------------------------|
A|--1--4---6-8-6--------2----1-2-4----1--4--0-2-0-4--2-1----|
E|2---------------------------------2--------------------2--|
 y se cuando yo no este te acordras d mi
G|---------------------------------------------|
D|-----4-3------------------4-3----------------|
A|-1-2-------6--2--4-----1-2----6--2--4--------|
E|--------------------2------------------------|
 tu te diras que tonta fui
G|----------------------------------------------------------|
D|----------------------------------------------------------|
A|-6--2--4----4--2--1---------------------------------------|
E|---------------------2------------------------------------|

G|----------------------------------------------------------|
D|----------------3-4---------------------------------------|
A|--1--4---6-8-6--------2----1-2-4----1--4--0-2-0-4--2-1----|
E|2---------------------------------2--------------------2--|
 y si esta cancion llega a tu corazon por favor piensa un poco en mi
G|----------------------------------------------------------|
D|----------------------------------------------------------|
A|---4--6--2----4--2--4--2-1--------------------------------|
E|-2----------2--------------2------------------------------|

G|----------------------------------------------------------|
D|----------------3-4---------------------------------------|
A|--1--4---6-8-6--------2----1-2-4----1--4--0-2-0-4--2-1----|
E|2---------------------------------2--------------------2--|

bueno aqui reportandome yo de nuevo aqui esta la tab de la cancion
un lugar de smitten me siento bien chevere!! por que me costo burda
sacarla. espero que la disfruten ok! ya que esta 100%!! perfecta!!!
por que todas estas canciones las saco pensando en ti!!
mi torta tres leches, te amo !! lourdes.
Suggest correction
Give kudos to tab author, rate the tab!
1 2 3 4 5
comments
print report bad tab
guest
You may want to rate the tab now too:
select rating
Wanna post a correction for this tab? Suggest correction