Oops, an error
Loading. Please wait.

Un Lugar Tab

by Smitten
11 views 1 this week
no commentswrite comment
1 2 3 4 5
3 more votes to show rating
add to favorites
launch autoscroll
font size
0
reset
how to read this tab
guitar tuner
×
Best way to learn
"Un Lugar"
Autoscroll
slow
fast
+/-
esc
set tempo
stop
FA# / DO# / RE# / SI
FA# / DO# / SI / DO#

m--------------------11-13-14-13-11-9-11-9-7-6-----9-------------------------------------
s-7-9-11-11-14-16-14---------------------------9-7---9-9-11-12-11-9-7-9------------------
s----------------------------------------------------------------------------------------
r----------------------------------------------------------------------------------------
l----------------------------------------------------------------------------------------
m----------------------------------------------------------------------------------------

m--------------------11-13-14-13-11-9-11-11-13-14-14-13-13-11-13-14-13-14-13-14-13-14-13-
s-7-9-11-11-14-16-14---------------------------------------------------------------------
s----------------------------------------------------------------------------------------
r----------------------------------------------------------------------------------------
l----------------------------------------------------------------------------------------
m----------------------------------------------------------------------------------------

FA# / DO# / RE# / SI
No se bien lo que fue, pero nunca tendré 

FA# / DO# / SI / DO#
un lugar como tu corazón. 

FA# / DO# / RE# / SI
Pero sé, sé muy bien, que vos también perdés 

FA# / DO# / SI / FA#
porque nunca tendrás un amor como yo. 


RE# / SI / FA#
Y sé que cuando yo no esté, 

RE# / SI / DO#
te acordarás de mí

RE# / SI / FA#
y al recordar mi triste voz, 

RE# / SI / DO#
te dirás 'que tonta fuí'.


Pero esto verás que no terminó aquí, 
todavía queda, mucho para mi, 
yo se que esta canción llega a tu corazón, 
por favor piensa un poco en mí.


m--------------------11-13-14-13-11-9-11-9-7-6-----9-------------------------------------
s-7-9-11-11-14-16-14---------------------------9-7---9-9-11-12-11-9-7-9------------------
s----------------------------------------------------------------------------------------
r----------------------------------------------------------------------------------------
l----------------------------------------------------------------------------------------
m----------------------------------------------------------------------------------------

m--------------------11-13-14-13-11-9-11-------------------------------------------------
s-7-9-11-11-14-16-14---------------------14-14-12-11-12-11-12-14-12-11-11----------------
s----------------------------------------------------------------------------------------
r----------------------------------------------------------------------------------------
l----------------------------------------------------------------------------------------
m----------------------------------------------------------------------------------------
Suggest correction
Give kudos to tab author, rate the tab!
1 2 3 4 5
comments
print report bad tab
guest
You may want to rate the tab now too:
select rating
Wanna post a correction for this tab? Suggest correction