Oops, an error
Loading. Please wait.

Paraiso Tab

3,960 views 1 this week
1 commentread comment
1 2 3 4 5
please rate
add to favorites
launch autoscroll
font size
0
reset
how to read this tab
guitar tuner
Tab Pro tools
  • play this tab
  • loop segment
  • change instrument
  • show fretboard
  • metronome
×
Best way to learn
"Paraiso"
Autoscroll
slow
fast
+/-
esc
set tempo
stop
Contributor
Capo
3rd fret
===============================================================================
                         Paraiso - Smokey Mountain
--------------------------------------------------------------------------------
I don't think there's an official site but here's a wikipedia link -
http://en.wikipedia.org/wiki/Smokey_Mountain_(band)

Tabbed by: stephanie_7368
Email:     stephanie_7368@yahoo.com

Composed by one of the most renowned Filipino musician, Ryan Cayabyab. ^^
Sorry hindi ko siya magawan ng standard tuning chords. The best talaga siya
pag may capo.


ARRANGED FOR SOLO PLAYING

*CAPO ON 3RD FRET


INTRO
     1                                 2
     F             113311              F             113311
     1 * * * 2 * * * 3 * * * 4 * * *   1 * * * 2 * * * 3 * * * 4 * * *
  e|---------------------------1-----|-------------------------1-------|
  B|-1---------------------1---------|-1---------------------1---------|
  G|-----------2---3-----3-----------|-----------2---3-----3-----------|
  D|-------3-----------3---------3---|-------3-----------3---------3---|
  A|-----3---------------------------|-----3---------------------------|
  E|-1-------1-------1-------1-------|-1-------1-------1---------------|


     3                                 4
     F             113311              F             113311
     1 * * * 2 * * * 3 * * * 4 * * *   1 * * * 2 * * * 3 * * * 4 * * *
  e|---------------------------------|-------------------------1-------|
  B|-1-------------------------1-----|-1---------------------1---------|
  G|-----------2---3-------3---------|-----------2---3-----3-----------|
  D|-------3-------------3-------3---|-------3-----------3-------------|
  A|-----3---------------------------|-----3---------------------------|
  E|-1-------1-------1-------1-------|-1-------1-------1---------------|
                                                                   re-

VERSE I
     5                                 6
     F             113311              F               033210
     1 * * * 2 * * * 3 * * * 4 * * *   1 * * * 2 * * * 3 * * * 4 * * *
  e|---------------------------------|---------------------------------|
  B|-1-------------------------1-----|-1---------------1---------------|
  G|-----------2---3-------3---------|-----------2---------------2-----|
  D|-------3-------------3-------3---|-------3-----3---------3-----3---|
  A|-----3---------------------------|-----3---------------3-----------|
  E|-1-------1-------1-------1-------|-1-------1-------0-------1-------|
   turn        to a land called          paraiso

     7                                 8
     Dm7             C                 A#sus2                  x13211
     1 * * * 2 * * * 3 * * * 4 * * *   1 * * * 2 * * * 3 * * * 4 * * *
  e|-1---------1-----0---------------|---------------------------------|
  B|-------1-------------------1-----|-1---------1-----1-------1-------|
  G|-----2-----------------0---------|-------3---------------3-2-------|
  D|-0-------0-----------2-----------|-----3-------3-------3---3-------|
  A|-----------------3-------3-------|-1-------1-------1-------1-------|
  E|---------------------------------|---------------------------------|
 a place     where a dying      river   ends                       no

    (5)                (6)
    birds dare fly over   paraiso

     9                                 10
     Dm7             x3x210            x20030          x4x200
     1 * * * 2 * * * 3 * * * 4 * * *   1 * * * 2 * * * 3 * * * 4 * * *
  e|-1---------1-----0---------------|-----------------0---------------|
  B|-------1---------------1---1-----|-3---------3-----------0---------|
  G|-----2---------------2-----------|-------0-------------2-----2-----|
  D|-0-------0-----------------------|-----0---------------------------|
  A|-----------------3-------3-------|-2-------2-------4-------4-------|
  E|---------------------------------|---------------------------------|
   no space         allows them to endure        the smoke that screens the air

     11                                12
     x30211          x20030            x320x1
     1 * * * 2 * * * 3 * * * 4 * * *   1 * * * 2 * * *
  e|-1-------------------------------|-3---1---0-------|
  B|-------1-----1---3---------3-----|-----------------|
  G|-----2-----2-----------0---------|---------0-------|
  D|-0-------------------0-----------|---2-------------|
  A|---------3-------2-------2-------|-3-----3---------|
  E|---------------------------------|-----------------|
                the grass that's never there


REFRAIN I

     13                                14
     A#sus2          x03211            A#sus2          x03211
     1 * * * 2 * * * 3 * * * 4 * * *   1 * * * 2 * * * 3 * * * 4 * * *
  e|---------------------------1-----|-1-------------------------1-----|
  B|-1---------1----1----------------|-1---------1-----1---------------|
  G|-3-----3--------2------2---------|-3-----3---------2-----2---------|
  D|-----3---------------3-----------|-----3---------------3-----------|
  A|-1-------1------0--------0-------|-1-------1-------0-------0-------|
  E|---------------------------------|---------------------------------|
and if I... (di kasya)                     I try...

     15                    Dm          16
     A#sus2          xx0230            x20030
     1 * * * 2 * * * 3 * * * 4 * * *   1 * * * 2 * * * 3 * * * 4 * * *
  e|-1---------------0-----1---------|---------------------------------|
  B|-1---------1-----------3---------|-3---------3-----3---------3-----|
  G|-3-----3-------------2-------2---|-------0---------------0---------|
  D|-----3-----------0-------0-------|-----0--------0------0-------0---|
  A|-1-------1-----------------------|-2-------2-------2-------2-------|
  E|---------------------------------|---------------------------------|
         a simple...                by the rest                     of the

     17
     C
     1 * * * 2 * * * 3 * * * 4 * * * 
  e|---------------------------------|
  B|-1---------1-----1---------------|
  G|-------0---------0---------------|
  D|-----2-------2---2---------------|
  A|-3-------3-------3---------------|
  E|---------------------------------|
    world

  (REFRAIN I lyrics)
  and if I could see a single bird what a joy
  I try to write some words and create
  a simple song to be heard by the rest
  of the world


VERSE II (same as VERSE I)
  I live in this land called paraiso
  in a house made of cardboard floors and walls
  I yearn to be free in paraiso
  free to claim anything I see
  matching rags for my clothes
  plastic bags for the cold


REFRAIN II (same as REFRAIN I except for those which are indicated)
  and if empty cans were all I have what a joy
  I never fight to take someone else's coins
  and live with fear like the rest of the

     18
     x32011          C       113211
     1 * * * 2 * * * 3 * * * 4 * * * 
  e|-1---------1-----0-------1-------|
  B|-------1-----1---1-------1-------|
  G|-----0-----------0-------2-------|
  D|-----------------2---------------|
  A|-3-------3-------3---------------|
  E|-------------------------1-------|
   boys                      para-


CHORUS
     19                                20
     A#sus2                            x03211
     1 * * * 2 * * * 3 * * * 4 * * *   1 * * * 2 * * * 3 * * * 4 * * *
  e|-----------1---------------1-----|-----------1---------------1-----|
  B|-1---------------1---------------|-1---------------1---------------|
  G|-3-----3---------3-----3---------|-2-----2---------2-----2---------|
  D|-----3-------3-------3-------3---|-----3-------3-------3-----------|
  A|-1-------1-------1-------1-------|-1-------1-------1-------1-------|
  E|---------------------------------|---------------------------------|
     i-    so                         help me make a stand     para-

  (18) (19)
  iso, take me by the hand
     (18)  
  paraiso

     21
     Dm              x20030
     1 * * * 2 * * * 3 * * * 4 * * *
  e|-1---------1---------------------|
  B|-3-----3---------3---------3-----|
  G|-----2-------2---0-----0---------|
  D|-0-------0-----------0-------0---|
  A|-----------------2-------2-------|
  E|---------------------------------|
   make the world understand

  (same as REFRAIN I)
           A#sus2         x03211
  that if I could see a single bird what a joy
  A#sus2                x03211
     this tired and hungry land could expect

     22                                23
     A#sus2          x30211            x20030          C
     1 * * * 2 * * * 3 * * * 4 * * *   1 * * * 2 * * * 3 * * * 4 * * *
  e|-1---------------1---------------|-----------------0---------------|
  B|-1---------1-----------1-----1---|-3---------3-----1---------------|
  G|-3-----3-------------2-----2-----|-0-----0---------0---------------|
  D|-----3-----------0---------------|-0---0-------0---2---------------|
  A|-1-------1---------------3-------|-2-------2-------3---------------|
  E|---------------------------------|---------------------------------|
  some truth and hope and respect from the rest

  (1)          (2) (3)(4)
  of the world 


ADLIB
  (play VERSE I chords)


(repeat REFRAIN II)

(repeat CHORUS two times)

(repeat CHORUS from half to end)


OUTRO
  (1) (2) F

===============================================================================
comments
We did not receive enough feedback on this tab! Please rate:
print report bad tab
1 2 3 4 5
1 comment total.
0 reply
iugam wrote on February 1 2010, 07:22 pm

I submitted a chord pattern for this song on the junkyard as an "article". It is arranged with capo3, you can use this tab but be sure to add a hammer on the 3rd string while you are on F. (batas_ko@yahoo.com)

------------
------------
------0h1---

I want to post or [tab]
guest
You may want to rate the tab now too:
select rating
Please do not post tabs as comments. Select "correction" instead!