Oops, an error
Loading. Please wait.

Come Round Here Bass Tab

13 views 3 this week
no commentswrite comment
1 2 3 4 5
3 more votes to show rating
add to favorites
launch autoscroll
font size
0
reset
guitar tuner
Autoscroll
slow
fast
+/-
esc
set tempo
stop
Help us to improve Ultimate-Guitar.com Take our survey!
×
Author
(Come ‘Round Here) I’m The One You Need
Single released in 1966 by Smokey Robinson & The Miracles, re-issued 1971 
Where it reached #13 UK. Bass performance James Jamerson. Tab by bass50611
As far as I can tell, as original and for a Jamerson bassline, a rarity.

Intro: (Play Quavers)                                               (Pause)
G|------------------------------------------------------------------------|
D|-3-3-3-3-3-3-3-3--1-1-1-1-1-1-1-1--5-5-5-5-5-5-5-5--5-5-5-5-5-5-5-5---5-|
A|------------------------------------------------------------------------|
E|------------------------------------------------------------------------|

G|-------------------------------------------------------|
D|-5--5---3--3---1--1---0--0---5--5---3--3---1--1---0--0-|
A|-------------------------------------------------------|
E|-------------------------------------------------------|

Verse 1:                                        (Play This x2)
G|-------------------------------------------------------|
D|-5--5-0-4--4-0-2--2-0--------5--5-0------0-2--2-0------|
A|----------------------3--3----------2--2----------3--3-|
E|-------------------------------------------------------|

Chorus:
G|-------------------------------------------------------|
D|-5--5---3--3---1--1---0--0---5--5---3--3---1--1---0--0-|
A|-------------------------------------------------------|
E|-------------------------------------------------------|

Verse 2:                                        (Play This x2)
G|-------------------------------------------------------|
D|-5--5-0-4--4-0-2--2-0--------5--5-0------0-2--2-0------|
A|----------------------3--3----------2--2----------3--3-|
E|-------------------------------------------------------|

Interlude: (Play Quavers)                                           (Pause)
G|------------------------------------------------------------------------|
D|-3-3-3-3-3-3-3-3--1-1-1-1-1-1-1-1--5-5-5-5-5-5-5-5--5-5-5-5-5-5-5-5---5-|
A|------------------------------------------------------------------------|
E|------------------------------------------------------------------------|

Verse 3:
G|-------------------------------------------------------|
D|-5--5-0-4--4-0-2--2-0----------------------------------|
A|----------------------3--3--------0-2--2--------2-3--3-|
E|-----------------------------3--3--------4-0--0--------|

G|-------------------------------------------------------|
D|-5--5-0-4--4-0-2--2-0--------5--5-0------0-2--2-0------|
A|----------------------3--3----------2--2----------3--3-|
E|-------------------------------------------------------|

Chorus:
G|-------------------------------------------------------|
D|-5--5---3--3---1--1---0--0---5--5---3--3---1--1---0--0-|
A|-------------------------------------------------------|
E|-------------------------------------------------------|

Verse 4:
G|-------------------------------------------------------|
D|-5--5-0-4--4-0-2--2-0--------------------0-2--2-0------|
A|----------------------3--3--------0-2--2----------3--3-|
E|-----------------------------3--3----------------------|

G|-------------------------------------------------------|
D|-5--5-0-4--4-0-2--2-0----------------------------------|
A|----------------------3--3--------0-2--2--------2-3--3-|
E|-----------------------------3--3--------4-0--0--------|

Verse 5:
G|-------------------------------------------------------|
D|-5--5-0-4--4-0-2--2-0--------5--5-0------0-2--2-0------|
A|----------------------3--3----------2--2----------3--3-|
E|-------------------------------------------------------|

G|-------------------------------------------------------|
D|-5--5-0-4--4-0-2--2-0----------------------------------|
A|----------------------3--3--------0-2--2--------2-3--3-|
E|-----------------------------3--3--------4-0--0--------|

Verse 6:
G|-------------------------------------------------------|
D|-5--5-0-4--4-0-2--2-0--------5--5-0------0-2--2-0------|
A|----------------------3--3----------2--2----------3--3-|
E|-------------------------------------------------------|

Outro:                                         (Song Fades Out)
G|-------------------------------------------------------|
D|-5--5-0-4--4-0-2--2-0--------5--5-0------0-2--2-0------|
A|----------------------3--3----------2--2----------3--3-|
E|-------------------------------------------------------|



Now you say every time you need some affection
The one you love goes in another direction
And you just sit there in a daze reminiscing
When you know some other lips he's been kissing

Now when you need the love he's never shown
You come round here
And when you need some loving arms to hold
You come round here

Now I may not be the one you want
Oh, but I know I'm the one you need
Said, "I may not be the one you want
Ooh, but I know I'm the one you need"

Your life stands still the minute he goes
You count the hours just hoping he shows
Girl, can't you see while you're longing for his touch
That I'm the one who loves you so much
While you're longing for his embrace
You're all alone there with tears on your face

Now when you feel the need to cry to someone
Cry to me
And when you feel the need to lean on someone
Lean on me

Now I may not be the one you want
But I sure 'nuff the one you need
Oh baby, I may not be the one you want
Ooh, but I know I'm the one you need

Now the days, the days you sit alone by yourself
He's out fooling round with somebody else
Leaving you alone here with nothing to do
Just waiting 'till he has time for you

Now when the loneliness gets hard to bear
Girl come round here
And when you need a little tender loving care
Girl come round here

Now I may not be the one you want
But I know I'm the one you need
Suggest correction
Give kudos to tab author, rate the tab!
1 2 3 4 5
comments
print report bad tab
guest
You may want to rate the tab now too:
select rating
Wanna post a correction for this tab? Suggest correction