Oops, an error
Loading. Please wait.

Cruisin bass

1,090 views 3 this week
no commentswrite comment
1 2 3 4 5
2 more votes to show rating
add to favorites
×
Save as Personal and add changes to this tab that will be seen only by you. Learn more ›
×
You can save this tab as Personal to edit and correct it or add notes. All changes will be seen only by you. Learn more »
launch autoscroll
font size
0
reset
guitar tuner
edit
Autoscroll
slow
fast
+/-
esc
set tempo
stop
Author
Difficulty
Tabbed by: 6METAL6BASSIST6
E-mail: petergriffinav@gmail.com

Tuning: EADG

G|--------4---6---4---6---4---6-----------------------------------|
D|----5-6---------------------------------------------------------| x4
A|7-------------------------------7-------------------------------|
E|----------------------------------------------------------------|

0:25

G|----------------------------------------------------------------|
D|2---------------------------------------------------------------|
A|----------------------------2-------------------------------2-4-|
E|----------------------0-2h4-----2-----------2-------------------|

G|----------------------------------------------------------------|
D|2-----------2---------------------------------------------------|
A|----4---2-------------------2-------------------------------2-4-|
E|------------------------2h4-----2-----------2-------------------|

G|----------------------------------------------------------------|
D|2-----------2---------------------------------------------------| x4
A|----4---2-------------------2-------------------------------2-4-|
E|--------------------0---2h4-----2-----------2-------------------|

0:58

G|----------------------------------------------------------------|
D|2---------------------------2---4-------------------------------|
A|------------------------------------------------------------2-4-|
E|------------0---0---------------------------2---2---------------|

G|----------------------------------------------------------------|
D|2---------------------------2---4-----------4---4---------------|
A|------------------------------------------------------------2-4-|
E|------------0---0-----------------------------------------------|

1:10

G|----------------------------------------------------------------|
D|----------------------------------------------------------------|
A|----------------------------------------------------------------|
E|0-----------0---0-----0-2---4---5-------------5-2---0-------5---|

G|----------------------------------------------------------------|
D|--------------------------------2-------------------------------|
A|5-----------2---------------2-4-------------------/-4-----------|
E|--------------------------------------------0---------------2---|

G|----------------------------------------------------------------|
D|----------------------------------------------------------------|
A|----------------------------------------------------------------|
E|0-----------0---0-----0-2---4---5-----------5---2---0-------5---|

G|----------------------------------------------------------------|
D|--------------------------------2-----2-2-----------------------|
A|5-----------2---------------------------------------------------|
E|--------------------------------------------0-------------------|

1:31

G|----------------------------------------------------------------|
D|2---------------------------------------------------------------|
A|----------------------------2-------------------------------2-4-|
E|----------------------0-2h4-----2-------------------------------|

G|----------------------------------------------------------------|
D|2-----------2---------------------------------------------------|
A|----4---2-------------------2-------------------------------2-4-|
E|------------------------2h4-----2-----------2-------------------|

G|----------------------------------------------------------------|
D|2-----------2---------------------------------------------------| x4
A|----4---2-------------------2-------------------------------2-4-|
E|--------------------0---2h4-----2-----------2-------------------|

2:07

G|----------------------------------------------------------------|
D|2---------------------------2---4-------------------------------|
A|------------------------------------------------------------2-4-|
E|------------0---0---------------------------2---2---------------|

G|----------------------------------------------------------------|
D|2---------------------------2---4-------------------------------|
A|------------------------------------------------------------2-4-|
E|------------0---0-----------------------------------------------|

2:18

G|----------------------------------------------------------------|
D|----------------------------------------------------------------|
A|----------------------------------------------------------------|
E|0-----------0---0-----0-2---4---5-----------5---2---0-------5---|

G|----------------------------------------------------------------|
D|--------------------------------2-------------------------------|
A|5-----------2---------------2---------------------/-4-----------|
E|--------------------------------------------0---------------2---|

G|----------------------------------------------------------------|
D|----------------------------------------------------------------|
A|----------------------------------------------------------------|
E|0-----------0---0-----0-2---4---5-----------5---2---0-------5---|

G|----------------------------------------------------------------|
D|--------------------------------2-------------------------------|
A|5-----------2---------------------------------------------------|
E|--------------------------------------------0-------------------|

2:41

G|--------4---6---4---6---4---6-----------------------------------|
D|----5-6---------------------------------------------------------| x2
A|7-------------------------------7-------------------------------|
E|----------------------------------------------------------------|

2:52

G|----------------------------------------------------------------|
D|2---------------------------------------------------------------|
A|----------------------------2-------------------------------2-4-|
E|--------------------0-0-2h4-----2-----------2---2---------------|

G|----------------------------------------------------------------|
D|2-----------2---------------------------------------------------|
A|----4---2-------------------2-----------------------------------|
E|--------------------0-0-2h4-----2-----------2---2-----------2---|

G|----------------------------------------------------------------|
D|------------2---------------------------------------------------|
A|----------------------------2-------------------------------2---|
E|0-----------------------2h4-----2-----------2-------------------|

G|----------------------------------------------------------------|
D|2-----------2---------------------------------------------------|
A|----4---2---------------------------------------------------2-4-|
E|--------------------0-----------2-------------------------------|

3:15

G|----------------------------------------------------------------|
D|2-----------2---------------------------------------------------|
A|----4---2-------------------2-------------------------------2-4-|
E|--------------------0---2h4-----2-----------2-------------------|

G|----------------------------------------------------------------|
D|2-----------2---------------------------------------------------|
A|----4---2-------------------2-----------------------------------|
E|--------------------0---2h4-----2-----------2-------------------|

G|----------------------------------------------------------------|
D|2-----------2---------------------------------------------------|
A|----4---2-------------------2-------------------------------2-4-|
E|--------------------0---2h4-----2-----------2-------------------|

G|----------------------------------------------------------------|
D|2-----------2---------------------------------------------------|
A|----4---2-------------------2-------------------------------2-4-|
E|--------------------0-0-2h4-----2-----------2-------------------|

3:36

G|----------------------------------------------------------------|
D|2-----------2---------------------------------------------------|
A|----4---2-------------------2-------------------------------2-4-|
E|--------------------0-0-2h4-----2-----------2-------------------|

G|----------------------------------------------------------------|
D|2-----------2---------------------------------------------------| x3
A|----4---2-------------------2-------------------------------2-4-|
E|--------------------0---2h4-----2-----------2-------------------|

G|----------------------------------------------------------------|
D|2-----------2---------------------------------------------------|
A|----4---2---------------------------------------------------2---|
E|--------------------0---2-------2-----------2-------------------|

G|----------------------------------------------------------------|
D|2-----------2---------------------------------------------------|
A|----4---2-------------------2-------------------------------2-4-|
E|--------------------0---2h4-----2-----------2-------------------|

4:12

G|----------------------------------------------------------------|
D|2---------------------------2---4-------------------------------|
A|------------------------------------------------------------2-4-|
E|------------0---0---------------------------2---2---------------|

G|----------------------------------------------------------------|
D|2---------------------------2---4-------------------------------|
A|------------------------------------------------------------2h4-|
E|------------0---0---------------------------2---2---------------|

4:23

G|----------------------------------------------------------------|
D|2---------------------------------------------------------------|
A|----------------------------------------------------------------|
E|------------0---0-----0-2---4---5-----------5---2---0-----5-5---|

G|----------------------------------------------------------------|
D|--------------------------------2-------------------------------|
A|5-----------2---------------2---------------------/-4-----------|
E|--------------------------------------------0---------------2---|

G|----------------------------------------------------------------|
D|----------------------------------------------------------------|
A|--------------------------------------------------------------4-|
E|0-----------0---0-----0-2---4---5-----------5---2---0-------5---|

G|----------------------------------------------------------------|
D|--------------------------------2-----2-2-----------------------|
A|5-----------2---------------2---------------------/-4-----------|
E|--------------------------------------------0---------------2---|

4:46

G|----------------------------------------------------------------|
D|----------------------------------------------------------------|
A|----------------------------------------------------------------|
E|0-----------0-------0---2---4---5-------0---5---2---0-------5---|

G|----------------------------------------------------------------|
D|--------------------------------2-------------------------------|
A|5-----------2---------------2-------------------------/-4-------|
E|--------------------------------------------0-------------------|

G|----------------------------------------------------------------|
D|----------------------------------------------------------------|
A|----------------------------------------------------------------|
E|0-----------0---0---0---2---4---5-----------5---2---0-----------|

G|----------------------------------------------------------------|
D|--------------------------------2-----2-2-----------------------|
A|5-----------2-------------------------------------/-4-----------|
E|--------------------------------------------0---------------2---|

5:09

G|----------------------------------------------------------------|
D|----------------------------------------------------------------|
A|----------------------------------------------------------------|
E|0-----------0-------0---2---4---5-------0---5---2---0-------5---|

G|----------------------------------------------------------------|
D|--------------------------------2-----2-2-----------------------|
A|5-----------2-------------------------------------/-4-----------|
E|--------------------------------------------0---------------2---|

G|----------------------------------------------------------------|
D|----------------------------------------------------------------|
A|--------------------------------------------------------------4-|
E|0-----------0---0-----0-2---4---5-----------5---2---0-------5---|

G|----------------------------------------------------------------|
D|--------------------------------2-----2-2-----------------------|
A|5-----------2-------------------------------------/-4-----------|
E|--------------------------------------------0---------------2---|

5:31

G|----------------------------------------------------------------|
D|----------------------------------------------------------------|
A|----------------------------------------------------------------|
E|0-----------0-------0---2---4---5-------0---5---2---0-------5---|

G|----------------------------------------------------------------|
D|--------------------------------2-----2-2-----------------------|
A|5-----------2---------------2-------------------------/-4-------|
E|--------------------------------------------0-------------------|

G|----------------------------------------------------------------|
D|----------------------------------------------------------------|
A|--------------------------------------------------------------4-|
E|0-----------0---0---0---2---4---5-----------5---2---0-------5---|

G|----------------|
D|----------------| fades out here.
A|5-----------2---|
E|----------------|

            
            
Suggest correction
Creating personal tab
Creating personal tab
You can edit any tab online and save it as your Personal.

You can edit, replace or remove any tab part or add personal notes – all changes will be seen only by you.

Personal tabs can be accessed anytime from any device, even offline.
Learn more »
Give kudos to tab author, rate the tab!
1 2 3 4 5
comments
print report bad tab
guest
You may want to rate the tab now too:
select rating
Wanna post a correction for this tab? Suggest correction