Oops, an error
Loading. Please wait.

Tears Of A Clown Bass Tab

version 3
version 3

Whole song

Interactive

2,382 views 18 this week
no commentswrite comment
1 2 3 4 5
x 3
add to favorites
launch autoscroll
font size
0
reset
guitar tuner
Autoscroll
slow
fast
+/-
esc
set tempo
stop
Help us to improve Ultimate-Guitar.com Take our survey!
×
Author
Difficulty
intermediate
Tears Of A Clown
Originally recorded in 1967 by Smokey Robinson & The Miracles
A number 1 re-release in 1970. This was the song that caused a rift
Between James Jamerson & Smokey. Jamerson walk away after 27 takes 
That resulted in Bob Babbit with the finished take (42 in total). 
Note not all verses are the same. Tabbed by bass50611. 

Intro: (NO BASS)

Verse 1: (Play This x8)
G|-------------------------|
D|-------------------------|
A|--6-8-9----------6-9--6--|
E|-9------4-6-7---9------9-|

Pre Chorus: (Play This x4)
G|------------------|
D|-----4------4-----|
A|-4------2------4--|
E|----------------2-|

Chorus:
G|--------------------------------------------------------|
D|--------------------------------------------------------|
A|------------------0-0-0-0-0-0-0-0---1-1-1-1-1-1-1-1-----|
E|-4-4-4-4-4-4-4-4------------------------------------4-2-|

Interlude: (NO BASS)

Repeat Verse 1:

Repeat Pre Chorus:

Repeat Chorus:

Interlude: (NO BASS)

Verse 3 (Play this x4)
G|-------------------------|
D|-------------------------|
A|--6-8-9--6-------6-9--6--|
E|-9--------9-7---9------9-|

Interlude: (NO BASS)

Outro: (Repeat to Fade)
G|-------------------------|
D|-------------------------|
A|--6-8-9--6-------6-9--6--|
E|-9--------9-7---9------9-|

Suggest correction
Give kudos to tab author, rate the tab!
1 2 3 4 5
comments
print report bad tab
guest
You may want to rate the tab now too:
select rating
Wanna post a correction for this tab? Suggest correction