Oops, an error
Loading. Please wait.

Tears Of A Clown Bass Tab

version 3
version 3

Whole song

Interactive

2,292 views 6 this week
no commentswrite comment
1 2 3 4 5
excellent!
x 3
add to favorites
launch autoscroll
font size
0
reset
guitar tuner
Autoscroll
slow
fast
+/-
esc
set tempo
stop
Help us to improve Ultimate-Guitar.com Take our survey!
×
Author
Difficulty
intermediate
Tears Of A Clown
Originally recorded in 1967 by Smokey Robinson & The Miracles
A number 1 re-release in 1970. This was the song that caused a rift
Between James Jamerson & Smokey. Jamerson walk away after 27 takes 
That resulted in Bob Babbit with the finished product (42 in total). 
Note not all verses are the same. Tabbed by bass50611. 
Comments bass254@btinternet.com 

Intro: (Play This x8)
G|---------------------------------------|
D|---------------------------------------|
A|-22---22---22---22---22---22---22---22-|
E|---------------------------------------|

Verse 1: (x8)
G|-------------------------|
D|-------------------------|
A|--6-8-9----------6-9--6--|
E|-9------4-6-7---9------9-|

Pre Chorus: (x4)
G|------------------|
D|-----4------4-----|
A|-4------2------4--|
E|----------------2-|

Chorus:
G|---------------------------------|
D|---------------------------------|
A|---------------------------------|
E|-44444444--55555555--6666666-4-2-|

Repeat Intro :(x8)

Repeat Verse 1: (x8)

Repeat Pre Chorus:

Repeat Chorus:

Repeat Intro: (x8)

Verse 3 (Play this x4)
G|-------------------------|
D|-------------------------|
A|--6-8-9--6-------6-9--6--|
E|-9--------9-7---9------9-|

Repeat Intro: (x4)

Outro: (Repeat to Fade)
G|-------------------------|
D|-------------------------|
A|--6-8-9--6-------6-9--6--|
E|-9--------9-7---9------9-|

Suggest correction
What's this?
You can suggest a correction to this tab. Community and Mods will review your correction and vote to approve or reject it.
comments
We did not receive enough feedback on this tab! Please rate:
print report bad tab
1 2 3 4 5
guest
You may want to rate the tab now too:
select rating
Please do not post tabs as comments. Select "correction" instead!