Oops, an error
Loading. Please wait.

The Agony And The Ecstasy Bass Tab

7 views 1 this week
no commentswrite comment
1 2 3 4 5
3 more votes to show rating
add to favorites
launch autoscroll
font size
0
reset
guitar tuner
Autoscroll
slow
fast
+/-
esc
set tempo
stop
Help us to improve Ultimate-Guitar.com Take our survey!
×
Author
Difficulty
novice
Tabbed by: 6METAL6BASSIST6
E-mail: petergriffinav@gmail.com

Tuning: EADG

G|----------------------------------------------------------------|
D|------4-5---4---------------------------------------------------|
A|7---7-----------7---5-------------------------------------------|
E|------------------------7---0---5-------------------------------|

0:07

G|----------------------------------------------------------------|
D|----------------------------------------------------------------|
A|5---------------5---------------5---------------5-----------5---|
E|------------5---------------5---------------5-------------------|

G|----------------------------------------------------------------|
D|----------------------------------------------------------------|
A|7-----------7---7-----------7-----------------------------------|
E|--------------------------------5-----------5---5-----------5---|

G|----------------------------------------------------------------|
D|----------------------------------------------------------------|
A|5-----------5---5-----------5---7-----------7---7---------------|
E|------------------------------------------------------------5---|

0:29

G|----------------------------------------------------------------|
D|----------------------------------------------------------------|
A|5---------------5---------------5---------------5-----------5---|
E|------------5---------------5---------------5-------------------|

G|----------------------------------------------------------------|
D|----------------------------------------------------------------|
A|7-----------7---7-----------7-----------------------------------|
E|--------------------------------5-----------5---5-----------5---|

G|----------------------------------------------------------------|
D|----------------------------------------------------------------|
A|5-----------5---5-----------5---7-----------7---7-----------7---|
E|----------------------------------------------------------------|

G|----------------------------------------------------------------|
D|----------------------------------------------------------------|
A|--------------------------------5-------------------------------|
E|5---5---5---5---5---5---5---5-------------------------------5---|

0:56

G|----------------------------------------------------------------|
D|----------------------------------------------------------------|
A|5---------------5---------------5---------------5-----------5---|
E|------------5---------------5---------------5-------------------|

G|----------------------------------------------------------------|
D|----------------------------------------------------------------|
A|7-----------7---7-----------7-----------------------------------|
E|--------------------------------5-----------5---5-----------5---|

G|----------------------------------------------------------------|
D|----------------------------------------------------------------|
A|5-----------5---5-----------5---7-----------7---7---------------|
E|------------------------------------------------------------5---|

1:17

G|----------------------------------------------------------------|
D|----------------------------------------------------------------|
A|5---------------5---------------5---------------5-----------5---|
E|------------5---------------5---------------5-------------------|

G|----------------------------------------------------------------|
D|----------------------------------------------------------------|
A|7-----------7---7-----------7-----------------------------------|
E|--------------------------------5-----------5---5-----------5---|

G|----------------------------------------------------------------|
D|----------------------------------------------------------------|
A|5-----------5---5-----------5---7-----------7---7-----------7---|
E|----------------------------------------------------------------|

G|----------------------------------------------------------------|
D|----------------------------------------------------------------|
A|--------------------------------7-----------7---7-----------7---|
E|5---5---5---5---5---5---5---5-----------------------------------|

1:44

G|----------------------------------------------------------------|
D|----------------------------------------------------------------|
A|--------------------------------5-----------5---5-----------5---|
E|5-----------5---5-----------5-----------------------------------|

G|----------------------------------------------------------------|
D|----------------------------------------------------------------|
A|--------------------------------7---------7-7---7-----------7---|
E|5---5---5---5---5---5---5---5-----------------------------------|

G|----------------------------------------------------------------|
D|----------------------------------------------------------------|
A|----------------------------7---5-----------5---5-----------5---|
E|5-----------5-----5---0-5---------------------------------------|

G|----------------------------------------------------------------|
D|------4-5---4---------------------------------------------------|
A|7---7-----------7---5-------------------------------------------|
E|------------------------7---0---5-------------------------------|

2:11

G|----------------------------------------------------------------|
D|----------------------------------------------------------------|
A|5---------------5---------------5---------------5-----------5---|
E|------------5---------------5---------------5-------------------|

G|----------------------------------------------------------------|
D|----------------------------------------------------------------|
A|7-----------7---7-----------7-----------------------------------|
E|--------------------------------5-----------5---5-----------5---|

G|----------------------------------------------------------------|
D|----------------------------------------------------------------|
A|5-----------5---5-----------5---7-----------7---7---------------|
E|------------------------------------------------------------5---|

2:32

G|----------------------------------------------------------------|
D|----------------------------------------------------------------|
A|5---------------5---------------5---------------5-----------5---|
E|------------5---------------5---------------5-------------------|

G|----------------------------------------------------------------|
D|----------------------------------------------------------------|
A|7-----------7---7-----------7-----------------------------------|
E|--------------------------------5-----------5---5-----------5---|

G|----------------------------------------------------------------|
D|----------------------------------------------------------------|
A|5-----------5---5-----------5---7-----------7---7-----------7---|
E|----------------------------------------------------------------|

G|----------------------------------------------------------------|
D|----------------------------------------------------------------|
A|--------------------------------7---------7-7---7-----------7---|
E|5---5---5---5---5---5---5---5-----------------------------------|

3:00

G|----------------------------------------------------------------|
D|----------------------------------------------------------------|
A|--------------------------------5-----------5---5-----------5---|
E|5-----------5---5-----------5-----------------------------------|

G|----------------------------------------------------------------|
D|----------------------------------------------------------------|
A|--------------------------------7-----------7---7-----------7---|
E|5---5---5---5---5---5---5---5-----------------------------------|

G|----------------------------------------------------------------|
D|----------------------------------------------------------------|
A|--------------------------------5-----------5---5-----------5---|
E|5-----------5---5-----------5-----------------------------------|

G|----------------------------------------------------------------|
D|------4-5---4---------------------------------------------------|
A|7---7-----------7---5-------------------------------------------|
E|------------------------7---0---5-------------------------------|

3:27

G|----------------------------------------------------------------|
D|----------------------------------------------------------------|
A|5-----------5---5-----------5---7-------------------------------|
E|--------------------------------------------5-----------5-------|

G|----------------------------------------------------------------|
D|--------------------------------------------------/-7-----------|
A|5-----------5---5-----------5---7-------------------------------|
E|--------------------------------------------5-------------5-5---|

G|----------------------------------------------------------------|
D|----------------------------------------------------------------|
A|5-----------5---5-----------5---7-------------------------------|
E|--------------------------------------------5-----------5-------|

G|----------------------------------------------------------------|
D|--------------------------------------------------/-7---7-7-----|
A|5-----------5---5-----------5---7-----------------------------5-|
E|------------------------------------------5-5-------------------|

3:55 until fadeout.

G|----------------------------------------------------------------|
D|----------------------------------------------------------------|
A|5-----------5---5-----------5---7-------------------------------|
E|--------------------------------------------5-----------5-------|
Suggest correction
Give kudos to tab author, rate the tab!
1 2 3 4 5
comments
print report bad tab
guest
You may want to rate the tab now too:
select rating
Wanna post a correction for this tab? Suggest correction