Oops, an error
Loading. Please wait.

You Really Got A Hold On Me Bass Tab

3,107 views 15 this week
1 commentread comment
1 2 3 4 5
1 last vote to show rating
add to favorites
launch autoscroll
font size
0
reset
guitar tuner
Autoscroll
slow
fast
+/-
esc
set tempo
stop
Help us to improve Ultimate-Guitar.com Take our survey!
×
Author
----------------------------------------------------------------
You Really Got A Hold On Me - Smokey Robinson
----------------------------------------------------------------

Tabbed By : TheManagement


Tuning: Standard

G|---------------------------------------------------------|
D|---------------------------------------------------------|
A|----10---------7--------10--------7----10--------10------|
E|--8------8-7-5----5-7-8-----8-7-5----8-----5-7-8---------|

G|----------------------------------------------------------|
D|----------------------------------------------------------|
A|-------7--------7-------10---------8--8-7-6-5-------------|
E|-8-7-5----0-4-5---5-7-8----8-7-5-1------------5-4-3-------|

G|-----------------------------------------------------------|
D|-----------------------------------------------------------|
A|-------10--------10--------7--------7--------10--------10--|
E|-5-7-8-----5-7-8-----8-7-5----8-7-5---5-7-8-----5-7-8------|

G|-------------------------------------------------------------|
D|-------------------------------------------------------------|
A|-------7--------7--------10----------8--8-7-6-5--------------|
E|-8-7-5----0-4-5----5-7-8----8-7-5-1-------------5-4-3--------|

G|-----------------------------------------------------------------------|
D|-----------------------------------------------------------------------|
A|-------10-------10-------7--------7--------7-------10---------8-8------|
E|-5-7-8----5-7-8----8-7-5----8-7-5---8-7-5----5-7-8---8-7-5-1-----5-7---|

G|--------------------------------------------------------------|
D|--------------------------------------------------------------|
A|------------------10---------------------10-------------------|
E|-8----8----8----8----8-7-6-5--3--8----8----8-7-6-5--3--5------|

G|--------------------------------------------------------------|
D|--------------------------------------------------------------|
A|-------10--------10--------7--------7--------10---------------|
E|-5-7-8-----5-7-8-----8-7-5----0-4-5----5-7-8------------------|

G|-------------------------------------------------------------------|
D|-------------------------------------------------------------------|
A|---------8--8-7-6-5--------------10-------10--------7--------7-----|
E|-8-7-5-1------------5-4-3--5-7-8-----5-7-8----8-7-5----8-7-5-------|

G|---------------------------------------------------------------------|
D|---------------------------------------------------------------------|
A|-------10----------8-8------------------------10-------10--------7---|
E|-5-7-8-----8-7-5-1-----5-7-8----8----8------8----5-8-7----8-7-5------|
                                                                        Fade Out
Suggest correction
Give kudos to tab author, rate the tab!
1 2 3 4 5
comments
print report bad tab
1 comment total.
0 reply
Lawrence Evans 10 Apr 19, 2014 04:20 PM

write the tabs in normal sheet paper width and add lyrics to flow with the tabs. it would be much better, to follow so bass parts are hard to hear with the other music.

guest
You may want to rate the tab now too:
select rating
Wanna post a correction for this tab? Suggest correction