Oops, an error
Loading. Please wait.

Living Next Door To Alice Tab

version 1
version 1

Whole song

Interactive

by Smokie
40,826 views 12 this week
3 commentsread comments
1 2 3 4 5
x 6
add to favorites
launch autoscroll
font size
0
reset
how to read this tab
guitar tuner
Autoscroll
slow
fast
+/-
esc
set tempo
stop
 Living Next Door To Alice - Smokie 
  
Use this arpeggios on the first and last lyrics :

A                                    D 
|-------0---------|-------0---------|-------2---------|-------2---------|
|-----------2-----|-----------2-----|-----3-----3-----|-----3-----3-----|
|-----2---------2-|-----2---------2-|---2-----2-----2-|---2-----2-----2-|
|---2-----2---2---|---2-----2---2---|-0-----------0---|-0-----------0---|
|-0---------------|-0---------------|-----------------|-----------------|
|-----------------|-----------------|-----------------|-----------------|

 E                                   A                 E   
|-------0---------|-------0---------|-------0---------|-------0---------|
|-----------0-----|-----------0-----|-----------2-----|-----------0-----|
|-----1---------1-|-----1---------1-|-----2---------0-|---------------0-|
|---2-----2---2---|---2-----2---2---|---2-----2---2---|-----2---2---2---|
|-2---------------|-2---------------|-0---------------|---2-------------|
|-----------------|-----------------|-----------------|-0---------------|


Riff#1 :                   Riff#2 :
  E                         E
|--------------------|     |------------------|
|--------------------|     |------------------|
|--------------------|     |------------------|
|-------------0-2----|     |------------------|
|-------0-2-4--------|     |------------------|
|-0-2-4--------------|     |-0---2---4--------|


A 
Sally called and she ...
D                               E             A          E
She said I suppose you'...

A
When I rushed to the ...
D
I could hardly ...
E                             A             E
The big limosine hold up ...


Refrain :__________________________________________________
A
I don't know why she's leaving and ...
D
I guess she's got reasons, but ...
         E                                      A     E     
Just for 24 years I've been ...

A
24 years just waiting ...
   D
to tell her how I fell and ...
          E                      E7                  A     E
Now, I've got to get used to not ...
____________________________________________________________


A
We walk together, two ...
D                                             E        A      E        
???? ?? ??? (I Can't get them),....

A
As she walks to the door and keep ...
D
Just fo a moment, I ....
E                                       A              E 
As the big limosine move slowly, .....

Refrain...(Use Riff#1 instead of last E )...

A
And Sally called back and ...
D                              E              A        E
And she said I know how to help...

A
She said now Alice has gone ...
D
You know I've been ...
    E                       (Riff#2)
The big limosine .....


Refrain....

          E                     E7                 A (EndRiff)
No, I'll never get used to not ....

EndRiff :(I'm not sure but something like :)
 A
|--------------------------------------|
|-0h2-0---2h4-2---0h2-0--0h2-----------|
|--------------------------------------|
|--------------------------------------|
|--------------------------------------|
|--------------------------------------|
______________________________________________________________________-
This song is great, I like it very much. And it's easy to play 2 ;)
By: Jimmy Scott
Suggest correction
comments
print report bad tab
3 comments total.
0 reply
xenosbobby 10 Nov 02, 2007 09:30 PM

hey man this was great
cheers

0 reply
noelhx 155 May 10, 2016 07:40 AM

we grew up together, two kids in the park,
carved our initials deep in the bark,
me and Alice

now she walks through the door with her head held high
just for a moment, I caught her eye
as the big limousine pulled slowly
out of Alice's drive

0 reply
SamanTK 10 Jan 29, 2017 04:49 AM

End should be something like that:

E-7h9-7---5h7-5---0h2-0-------12-----9--
B-7---7---5---5---0---0----12----12--10-
G-----------------------------

E--

guest
Wanna post a correction for this tab? Suggest correction